» » »

Story Of The Year - Stereo Tabs

Artists:  A B C D E F G H I J K L M N O P Q R S T U V W X Y Z # 

Stereo Tabs

(ver. 3) Click to play this song!
Story Of The Year
 Rating:
4/5 (4 votes)

 Stereo lessons Tabs too difficult? Try these video lessons and learn fast
 
                Tuning: DADGBE 

Intro: Guitar One

|-------------------------------------------------------|
|-------------------------------------------------------|
|-9999-9999-9999-9999-7777-7777-7777-7777---------------|
|-xxxx-xxxx-xxxx-xxxx-xxxx-xxxx-xxxx-xxxx---------------|
|-7777-7777-7777-7777-5555-5555-5555-5555---------------|
|-------------------------------------------------------|

|----------------------------------------------------------|
|----------------------------------------------------------|
|-9999-9999-9999-9977-11111111-11111111-11111111-11111111--|         
|-xxxx-xxxx-xxxx-xxxx-x-x-x-x--x-x-x-x--x-x-x-x--x-x-x-x---|
|-7777-7777-7777-7755-9-9-9-9--9-9-9-9--9-9-9-9--9-9-9-9---|
|----------------------------------------------------------|
In case you havent guessed, these are 11's not 1's.

|---------------------------------------------------------------------------------|
|---------------------------------------------------------------------------------|
|-12121212-12121212-12121212-121277-14141414-14141414-14141414-14141414-----------|       
|-x-x-x-x--x-x-x-x--x-x-x-x--x-x-xx-x-x-x-x--x-x-x-x--x-x-x-x--x-x-x-x------------|   
|-10101010-10101010-10101010-101055-12121212-12121212-12121212-12121212-----------|
|---------------------------------------------------------------------------------|
song goes a bit weird here, listen for the changes and you'll see. 

|-------------------------------------------------------|
|-------------------------------------------------------|
|-16161616-16161616-19191919-19191919-21212121-21212121-|
|-x-x-x-x--x-x-x-x--x-x-x-x--x-x-x-x--x-x-x-x--x-x-x-x--|
|-14141414-14141414-17171717-17171717-19191919-19191919-|
|-------------------------------------------------------|

Guitar Two:
|-------------------------------------------------------|
|-------------------------------------------------------|
|-------------------------------------------------------|    
|-33--33------------------------------------------------|
|-33--33------------------------------------------------|
|-33--33------------------------------------------------|
Play this part over guitar one about halfway through.

Verse:
Both Guitars
|-------------------------------------------------------|
|-------------------------------------------------------|
|--------------12121212-12121212-12121212-12121212------|
|--------------x-x-x-x--x-x-x-x--x-x-x-x--x-x-x-x-------|
|-20232--20232-10101010-10101010-10101010-10101010------|
|-20232--20232------------------------------------------|

|-------------------------------------------------------|
|-------------------------------------------------------|
|-12121212-12121212-121214-1414-14141414----------------|
|-x-x-x-x--x-x-x-x--x-x-x--x-x--x-x-x-x-----------------|
|-10101010-10101010-101012-1212-12121212----------------|
|-------------------------------------------------------|

|-------------------------------------------------------------|
|----------------3-------------------3------------------------|
|------------------0-------------------0--5555-5555-5555-5555-|
|--------245454--------------245454-------5555-5555-5555-5555-|
|-20232---------------20232---------------3333-3333-3333-3333-|
|-20232---------------20232-----------------------------------|

|---------------------------------------------------------|
|---------------------------------------------------------|
|-----------4444-4444--12121212-12121212-11111111-11111111|
|-5555-5555-4444-4444--x-x-x-x--x-x-x-x--x-x-x-x--x-x-x-x-|
|-5555-5555-2222-2222--10101010-10101010-9-9-9-9--9-9-9-9-|
|-5555-5555-----------------------------------------------|

|-------------------------------------------------------|
|-------------------------------------------------------|
|-9999-9999-77-77-7-------------------------------------|
|-xxxx-xxxx-xx-xx-x-------------------------------------|
|-7777-7777-55-55-5-------------------------------------|
|-------------------------------------------------------|

Chorus:
Both Guitars

|-------------------------------------------------------|
|-------------------------------------------------------|
|-xxx-5555-5555-7777-7777-9999-9999-7777-7777-----------|
|-xxx-5555-5555-7777-7777-9999-9999-7777-7777-----------|
|-xxx-3333-3333-5555-5555-7777-7777-5555-5555-----------|
|-xxx---------------------------------------------------|

|-------------------------------------------------------|
|-------------------------------------------------------|
|-5555-5555-7777-7777-----------------------------------|
|-5555-5555-7777-7777-2222-2222-4444-4444---------------|
|-3333-3333-5555-5555-2222-2222-xxxx-xxxx---------------|
|---------------------2222-2222-4444-4444---------------|

|-------------------------------------------------------|
|-------------------------------------------------------|
|-5555-5555-7777-7777-9999-9999-------------------------|
|-5555-5555-7777-7777-9999-9999-4444-5555---------------|
|-3333-3333-5555-5555-7777-7777-xxxx-xxxx---------------|
|-------------------------------4444-5555---------------|

|-------------------------------------------------------|
|-------------------------------------------------------|
|-5555-5555-5555-5555-7777-7777-7777-7777---------------|
|-5555-5555-5555-5555-7777-7777-7777-7777---------------|
|-3333-3333-3333-3333-5555-5555-5555-5555---------------|
|---------------------0000-0000-0000-0000---------------|

|------------------------------------------------------------------|
|------------------------------------------------------------------|
|------------------------------------------------------------------|
|------------------------------------------------------------------|
|-2----2h3h2-------2----2h3h2-------2----2h3h2-------2-3-3-3-3-----|
|-2--2-------5-2---2--2-------5-2---2--2-------5-2---2-3-3-3-3-----|

Verse 2
Both Guitars

|-------------------------------------------------------|
|-------------------------------------------------------|
|-------------------------------------------------------|
|-------------------------------------------------------|
|-2-0232--22-22-2--2-0232--22-22-2----------------------|
|-2-0232-222-22-2--2-0232-222-22-2----------------------|

|-------------------------------------------------------|
|-------------------------------------------------------|
|-5-55-5555--5-555555-5777-777-7777-7777----------------|
|-5-55-5555--5-555555-5777-777-7777-7777----------------|
|-3-33-3333--3-333333-3555-555-5555-5555----------------|
|-------------------------------------------------------|

|-------------------------------------------------------|
|-------------------------------------------------------|
|-------------------------------------------------------|
|--------------4---4h5---------------4----4h5-----------|
|-2-0232----------------2-0232--------------------------|
|-2-0232--22-2---2------2-0232--22-2----2---------------|

|-------------------------------------------------------|
|-------------------------------------------------------|
|-5555-5555-5555-5555-----------------------------------|
|-5555-5555-5555-5555-5555-555-9-999-999----------------|
|-3333-3333-3333-3333-5555-555-9-999-999----------------|
|---------------------5555-555-9-999-999----------------|

|-------------------------------------------------------------|
|-------------------------------------------------------------|
|-12121212-12121212-14141414-14141414-16161616-16161616-14----|
|-x-x-x-x--x-x-x-x--x-x-x-x--x-x-x-x--x-x-x-x--x-x-x-x--x-----|
|-10101010-10101010-12121212-12121212-14141414-14141414-12----|
|-------------------------------------------------------------|

Then Play Chorus
Then Play:

|-------------------------|
|-------------------------|
|-------------------------| Play Harmonic at end of this line on bottom string.
|-------------------------|
|-2-----2-----2~--------2-|
|-2-222-2-222-2~--------2-|

|-------------------------------------------------------|
|-------------------------------------------------------|
|-------------------------------------------------------|
|-------------------------------------------------------|
|-0000-0000--2-2--222-000--22-222-333-------------------|
|-0000-0000--2-2--222-000--22-222-333-------------------|

|-------------------------------------------------------|
|-------------------------------------------------------|
|-------------------------------------------------------|
|-------------------------------------------------------|
|-22--222-000--2-0-2------------------------------------|
|-22--222-000--2-0-2-6-5--------------------------------|
            
Submit corrections


        Stereo lessons Hard to play? Try these video lessons and learn fast Stereo lessons
        
↑ Back to top | Tablatures and chords for acoustic guitar and electric guitar, ukulele, drums are parodies/interpretations of the original songs. You may use it for private study, scholarship, research or language learning purposes only