» » »

Story Of The Year - Stereo Bass

Artists:  A B C D E F G H I J K L M N O P Q R S T U V W X Y Z # 

Stereo Bass

(ver. 1) Click to play this song!
Story Of The Year
 Rating:
4/5 (4 votes)

 Stereo lessons Tabs too difficult? Try these video lessons and learn fast
 
                -------------------------------------------------------------------------------
			     Stereo - Story of the Year
-------------------------------------------------------------------------------


Tuning: D flat,A,D,G 

0:10
G|------------------------------------------------------------------|
D|------------------------------------------------------------------|
A|--22-222-222-222-244-444-444-444-466-666-666-666-666-666-66-777---|
D|------------------------------------------------------------------|

G|--------------------------------------------------------------|
D|--------------------------------------------------------------|
A|----------------22222-22222-22222-44444-----------------------|
D|--20232--20232---------------------------20232--20232---------|

G|-------------------------------------------------------------|
D|-------------------------------------------------------------|
A|--22222--22222--------11111--6666-4444-2222-4444-------------|
D|----------------55555----------------------------------------|

0:45
G|----------------------------||-------------------------------|
D|----------------------------||-------------------------------|
A|--22222--44444--------------||-22222--44444------------------|
D|-----------------2222-0000--||-------------2222--4455--------|X2

G|----------------------------------------------|
D|----------------------------------------------|
A|--22222222222--444444444----------------------|
D|---------------------------2---2---2---2-3333-|

1:11
G|-------------------------------------------------------------------|
D|-------------------------------------------------------------------|
A|----------------------------------22222-22222-244444---------------|
D|--20232-2-2-2-2-2-20232-2-2-2-2-2--------------------20232--20232--|

G|-------------------------------------------------------------|
D|-------------------------------------------------------------|
A|--22222--22222--------11111--6666-4444-2222-4----------------|
D|----------------55555----------------------------------------|

1:36
G|----------------------------||-------------------------------|
D|----------------------------||-------------------------------|
A|--22222--44444--------------||-22222--44444------------------|
D|-----------------22222-0000-||-------------22222--4455-------|X2

G|----------------------------------------------|
D|----------------------------------------------|
A|--22222222222--444444444----------------------|
D|---------------------------2~---2~----000-000-|

G|--------------------------------------|
D|--------------------------------------|
A|--------------------------------------|
D|--22-220022-223322--2200-202-5h6-5----|X4

2:28
G|------------------------------------------------------------------|
D|------------------------------------------------------------------|
A|----------22---2---44---4-----------------------------------------|
D|--1~--0~-----4---4----4---4---------------------------------------|

G|----------------------------||-------------------------------|
D|----------------------------||-------------------------------|
A|----------------------------||-22222--44444------------------|
D|-----------------22222-0000-||-------------22222--4455-------|X2

G|---------------------------|
D|---------------------------|
A|--22222222222--444444444---|
D|---------------------------|

G|----------------------------||-------------------------------|
D|----------------------------||-------------------------------|
A|--22222--44444--------------||-22222--44444------------------|
D|-----------------22222-0000-||-------------22222--4455-------|X2

G|-------------------------------------------------------------|
D|-------------------------------------------------------------|
A|--22222222222--444444444-------------------------------------|
D|---------------------------2--2--2--2--2--2--2--23333-20232--|


| /  slide up
| \  slide down
| h  hammer-on
| p  pull-off
| ~  vibrato
| +  harmonic
| x  Mute note
===============================================================================
            
Submit corrections


        Stereo lessons Hard to play? Try these video lessons and learn fast Stereo lessons
        
↑ Back to top | Tablatures and chords for acoustic guitar and electric guitar, ukulele, drums are parodies/interpretations of the original songs. You may use it for private study, scholarship, research or language learning purposes only