» » »

Story Of The Year - Five Against The World Tabs

Artists:  A B C D E F G H I J K L M N O P Q R S T U V W X Y Z # 

Five Against The World Tabs

(ver. 3) Click to play this song!
Story Of The Year
 Rating:
4/5 (4 votes)

 Five Against The World lessons Tabs too difficult? Try these video lessons and learn fast
 
                Intro    |Verse
e|-------|-----------------------------------|
b|-------|-----------------------------------|
g|-------|-----------------------8h7h5-------|
d|-------|-10-1010-1010----8h10--------------|
a|-------|_10-1010-1010----------------------|
d|--/10\-|-10-1010-1010----------------------|
              .    .  .
e|-------------------------------------------|
b|-------------------------------------------|
g|---------------------------8h7h5-----------|
d|----10-1010-1010----8h10-------------------|
a|----10-1010-1010---------------------------|
d|----10-1010-1010---------------------------|
          .    . .
e|-------------------------------------------|
b|-------------------------------------------|
g|-------------------8h7h5-------------------|
d|-----8-88-88--8h10--------8-88-88----------|
a|-----8-88-88--------------8-88-88----------|
d|-----8-88-88--------------8-88-88----------|
         .  ..                .  ..
e|-------------------------------------------|
b|-------------------------------------------|
g|-------8h7h5-------------------------------|
d|--8h10-------10-1010-1010------------------|
a|-------------10-1010-1010------------------|
d|-------------10-1010-1010------------------|
                   .    . .
e|-------------------------------------------|
b|-------------------------------------------|
g|--8h7h5--------------------8h7h5-----------|
d|--------10-1010-1010--8h10-----------------|
a|--------10-1010-1010-----------------------|
d|--------10-1010-1010-----------------------|
              .    . .
e|-------------------------------------------|
b|-------------------------------------------|
g|--------------------8h7h5------------------|
d|-----8-88-88--8h10-------------------------|
a|-----8-88-88-------------------------------|
d|-----8-88-88-------------------------------|
         .  ..
e|-------------------------------------------|
b|-------------------------------------------|
g|--------------------8h7h5------------------|
d|-----8-88-88--8h10-------------------------|
a|-----8-88-88-------------------------------|
d|-----8-88-88-------------------------------|
         .  ..
Pre-Chorus
e|-------------------------------------------|
b|-------------------------------------------|
g|-------------------------------------------|
d|----666-6-6----6--6--6--66-6-6-------------|
a|----666-6-6----6--6--6--66-6-6-------------|
d|----666-6-6----6--6--6--66-6-6-------------|
      ... .


Chorus
e|-------------------------------------------|
b|-------------------------------------------|
g|-------------------------------------------|
d|-88888888-1010101010101010-66666666--------|
a|-88888888-1010101010101010-66666666--------|
d|-88888888-1010101010101010-66666666--------|

e|-------------------------------------------|
b|-------------------------------------------|
g|--------------8h7h5------------------------|
d|-----88888888------8-88888888--------------|
a|-----88888888--------88888888--------------|
d|-----88888888--------88888888--------------|

e|-------------------------------------------|
b|-------------------------------------------|
g|-------------------------------------------|
d|-1010101010101010-66666666-88888888--------|
a|-1010101010101010-66666666-88888888--------|
d|-1010101010101010-66666666-88888888--------|

e|-------------------------------------------|
b|-------------------------------------------|
g|-------------------------------------------|
d|-88888888-1010101010101010-66666666--------|
a|-88888888-1010101010101010-66666666--------|
d|-88888888-1010101010101010-66666666--------|

e|-------------------------------------------|
b|-------------------------------------------|
g|88888888-----------------------------------|
d|88888888-88888888-1010101010101010-6-8-----|
a|66666666-88888888-1010101010101010-6-8-----|
d|---------88888888-1010101010101010-6-8-----|


verse x1
Chorusx1

Bridge
e|--------------------------------------|
b|--------------------------------------|
g|-----------------------------88-x-----| X4
d|--10-10-1010-6-66-666-1-1-11-88-x-888-|
a|--10-10-1010-6-66-666-1-1-11-66-x-888-|
d|--10-10-1010-6-66-666-1-1-11----x-888-|

Solo
e|-----6--4-3---------------6-8-6/8-11-8------|
b|------------4---------4-6-------------------|
g|--5-----------3---3-5-----------------------|
d|--------------------------------------------|
a|--------------------------------------------|
d|--------------------------------------------|

e|-6----4-3---4h3---4h3---4h3-------6---------|
b|----------4-----4-----4-----4-4h6---4h6-----|
g|--------------------------------------------|
d|--------------------------------------------|
a|--------------------------------------------|
d|--------------------------------------------|

e|-6-----6-----6-------------------------------|
b|---4h6---4h6---------------------------------|
g|------------------------------------13h12h13-|
d|---------------------------15h13h15----------|
a|------------------15h13h15-------------------|
d|---------------------------------------------|

e|-------------------15h13h15-20-20-15-20-----|
b|----------14h13h14--------------------------|
g|-15h13h15-----------------------------------|
d|--------------------------------------------|
a|--------------------------------------------|
d|--------------------------------------------|

e|--18h17h15h18-18-20-18h17h15h18-18-20-------|
b|--------------------------------------------|
g|--------------------------------------------|
d|--------------------------------------------|
a|--------------------------------------------|
d|--------------------------------------------|

e|-18h17h15h18-18b-4-3---4-3----3-3/4-4/6-8---|
b|---------------------4-----4----------------|
g|--------------------------------------------|
d|--------------------------------------------|
a|--------------------------------------------|
d|--------------------------------------------|

e|--18h15-------18h15--------18h15------------|
b|--------18h16-------18h16-------------------|
g|--------------------------------------------|
d|--------------------------------------------|
a|--------------------------------------------|
d|--------------------------------------------|

e|--------18h15-----18\-----------------------|
b|-18h16--------------------------------------|
g|--------------------------------------------|
d|--------------------------------------------|
a|--------------------------------------------|
d|--------------------------------------------|

After Solo Play . . . .
e|--------------------------------------------|
b|--------------------------------------------|
g|--------------------------------------------|
d|--88888888-1010101010101010-66666666--------|
a|--88888888-1010101010101010-66666666--------|
d|--88888888-1010101010101010-66666666--------|

e|--------------------------------------------|
b|--------------------------------------------|
g|----------8h7h5-----------------------------|
d|-88888888-------8-88888888-1010101010101010-|
a|-88888888---------88888888-1010101010101010-|
d|-88888888---------88888888-1010101010101010-|

e|---------------|
b|---------------|
g|---------------|
d|-66666666------|
a|-66666666------|
d|-66666666------|

Chorus

Outro
e|--------------------------------------------|
b|--------------------------------------------|
g|--------------------------------------------|
d|-10-10-8-10-888888--10-10-8-10-888888-10-10-|
a|-10-10-8-10-888888--10-10-8-10-888888-10-10-|
d|-10-10-8-10-888888--10-10-8-10-888888-10-10-|
       . .  . ......      . .  . ......     .
e|-----------------------------------------------|
b|-----------------------------------------------|
g|-----------------------------------------------|
d|-8-10-888888-10-10-8-10-888888-10-8888-10-8-10-|
a|-8-10-888888-10-10-8-10-888888-10-8888-10-8-10-|
d|-8-10-888888-10-10-8-10-888888-10-8888-10-8-10-|
   .  . ......     . .  . ......    ....    .  .
            
Submit corrections


        Five Against The World lessons Hard to play? Try these video lessons and learn fast Five Against The World lessons
        
↑ Back to top | Tablatures and chords for acoustic guitar and electric guitar, ukulele, drums are parodies/interpretations of the original songs. You may use it for private study, scholarship, research or language learning purposes only