» » »

Story Of The Year - Five Against The World Tabs

Artists:  A B C D E F G H I J K L M N O P Q R S T U V W X Y Z # 

Five Against The World Tabs

(ver. 1) Click to play this song!
Story Of The Year
 Rating:
4.7/5 (12 votes)

 Five Against The World lessons Tabs too difficult? Try these video lessons and learn fast
 
                Intro
e|-------|
b|-------|
g|-------|
d|-------|
a|-------|
d|--/10\-

Verse Guitar 1
e|-----------------------------------------|
b|-----------------------------------------|
g|-----------------------------------------|
d|_1010-1010-810-----1010-1010-810---------|
a|_1010-1010-810-----1010-1010-810---------|
d|-1010-1010-810-----1010-1010-810---------|
   .    .    . .     .    .    . .

e|------------------------------------------|
b|------------------------------------------|
g|------------------------------------------|
d|--88--810-88---88-88-88-------------------|
a|--88--8-8-88---88-86-88-------------------|
d|--88--8-8-88---88-88-88-------------------|
    .   .   ..   .  .  ..
Pretty much the same the whole way through

Verse guitar 2
(ok i KNOW this is the same the
whole way through)
e|-------------------------------------------|
b|-------------------------------------------|
g|--------8p7--------------------------------|
d|--8h10------8------------------------------|
a|-------------------------------------------|
d|-------------------------------------------|

Pre-Chorus
e|-------------------------------------------|
b|-------------------------------------------|
g|-------------------------------------------|
d|----666-6-6----6--6--6--66-6-6-------------|
a|----666-6-6----6--6--6--66-6-6-------------|
d|----666-6-6----6--6--6--66-6-6-------------|
      ... .


Chorus Guitar 1
e|-------------------------------------------|
b|-------------------------------------------|
g|-------------------------------------------|
d|-88888888-1010101010101010-66666666--------|
a|-88888888-1010101010101010-66666666--------|
d|-88888888-1010101010101010-66666666--------|

e|-------------------------------------------|
b|-------------------------------------------|
g|---------------8p7-------------------------|
d|-----88888888------8-88888888--------------|
a|-----88888888--------88888888--------------|
d|-----88888888--------88888888--------------|

e|-------------------------------------------|
b|-------------------------------------------|
g|------------------88888888-----------------|
d|-1010101010101010-88888888-88888888--------|
a|-1010101010101010-66666666-88888888--------|
d|-1010101010101010----------88888888--------|

e|-------------------------------------------|
b|-------------------------------------------|
g|-------------------------------------------|
d|-88888888-1010101010101010-66666666--------|
a|-88888888-1010101010101010-66666666--------|
d|-88888888-1010101010101010-66666666--------|

e|-------------------------------------------|
b|-------------------------------------------|
g|88888888-----------------------------------|
d|88888888-88888888-1010101010101010-6-8-----|
a|66666666-88888888-1010101010101010-6-8-----|
d|---------88888888-1010101010101010-6-8-----|


verse x1
Pre Chorus Guitar 1

Pre Chorus Guitar 2
e|----------------------------------------------|
b|----------------------------------------------|
g|----13-13-13-13-13--888--15-15----------------|
d|----------------------------------------------|
a|----11-11-11-11-11--666--13-13----------------|
d|----------------------------------------------|

Chorusx1

Bridge
e|--------------------------------------|
b|--------------------------------------|
g|-----------------------------88-x-----| X4
d|--10-10-1010-6-66-666-8-8-88-88-x-888-|
a|--10-10-1010-6-66-666-8-8-88-66-x-888-|
d|--10-10-1010-6-66-666-8-8-88----x-888-|

Solo
e|-----6--4p3---------------------6h8-6/8-11-8-----|
b|------------4-----------4h6----------------------|
g|--5-----------3---3h5----------------------------|
d|-------------------------------------------------|
a|-------------------------------------------------|
d|-------------------------------------------------|

e|-6----4p3---4p3---4p3---4p3-------6---------|
b|----------4-----4-----4-----4-4h6---4h6-----|
g|--------------------------------------------|
d|--------------------------------------------|
a|--------------------------------------------|
d|--------------------------------------------|

e|-6-----6-----6----------------------------------------|
b|---4h6---4h6------------------------------------------|
g|------------------------------------------13p12h13p12-|
d|------------------------------15p13h15p13-------------|
a|------------------15p13h15p13-------------------------|
d|------------------------------------------------------|

e|--------------------------13p11h13p11-20-20-15-20----|
b|-------------13p11h13p11-----------------------------|
g|-15p13h15p13-----------------------------------------|
d|-----------------------------------------------------|
a|-----------------------------------------------------|
d|-----------------------------------------------------|

e|-15h18p15-18-20-15h18p15-18-20-15h18p15-18b-|
b|--------------------------------------------|
g|--------------------------------------------|
d|--------------------------------------------|
a|--------------------------------------------|
d|--------------------------------------------|

e|---------4p3---4p3-4-3/4-4h6/8--------------|
b|-------------4-----4------------------------|
g|--------------------------------------------|
d|--------------------------------------------|
a|--------------------------------------------|
d|--------------------------------------------|

e|--18p15--------------18p15---------------|
b|--------18p15--------------18p15---------|
g|--------------17p15--------------17p15---|
d|-----------------------------------------|
a|-----------------------------------------|
d|-----------------------------------------|

e|-18p15-------------18b\---------------------|
b|-------18p15--------------------------------|
g|-------------17p15--------------------------|
d|--------------------------------------------|
a|--------------------------------------------|
d|--------------------------------------------|

After Solo Play . . . .
e|--------------------------------------------|
b|--------------------------------------------|
g|--------------------------------------------|
d|--88888888-1010101010101010-66666666--------|
a|--88888888-1010101010101010-66666666--------|
d|--88888888-1010101010101010-66666666--------|

e|--------------------------------------------|
b|--------------------------------------------|
g|----------8p7p5-----------------------------|
d|-88888888-------8-88888888-1010101010101010-|
a|-88888888---------88888888-1010101010101010-|
d|-88888888---------88888888-1010101010101010-|

e|---------------|
b|---------------|
g|---------------|
d|-66668888------|
a|-66668888------|
d|-66668888------|

Chorus

Outro
e|--------------------------------------------|
b|--------------------------------------------|
g|--------------------------------------------|
d|-10-10-8-10-888888--10-10-8-10-888888-10-10-|
a|-10-10-8-10-888888--10-10-8-10-888888-10-10-|
d|-10-10-8-10-888888--10-10-8-10-888888-10-10-|
       . .  . ......      . .  . ......     .
e|-----------------------------------------------|
b|-----------------------------------------------|
g|-----------------------------------------------|
d|-8-10-888888-10-10-8-10-888888-10-8888-10-8-10-|
a|-8-10-888888-10-10-8-10-888888-10-8888-10-8-10-|
d|-8-10-888888-10-10-8-10-888888-10-8888-10-8-10-|
   .  . ......     . .  . ......    ....    .  .


There it is, revised, completely fixed from the
first one i did. I know somethings aren't totally
correct, if there is anything you think could be changed,
            
Submit corrections


        Five Against The World lessons Hard to play? Try these video lessons and learn fast Five Against The World lessons
        
↑ Back to top | Tablatures and chords for acoustic guitar and electric guitar, ukulele, drums are parodies/interpretations of the original songs. You may use it for private study, scholarship, research or language learning purposes only