» » »

Stone Sour - Orchids Bass

Artists:  A B C D E F G H I J K L M N O P Q R S T U V W X Y Z # 

Orchids Bass

(ver. 2) Click to play this song!
Stone Sour
 Rating:
4/5 (4 votes)


 Orchids lessons Tabs too difficult? Try these video lessons and learn fast
 
                
for covers and lessons.

This song is played on a 4 String bass tunned to Drop B.

Tunning: BF#BE - Drop B.

Riff1 / Intro section 1:
(there will be a little sample then the bass comes in)

E |----7-8----7-9-|
B |---0------0----| x1 (then go on to section 2)
F#|--0------0-----|
B |-0------0------|

Riff1 / Intro section 2:

E |----7-8-7----7-9-7-|
B |---0--------0------| (keep reapting till the the next riff statrs)
F#|--0--------0-------|
B |-0--------0--------|

Riff2 / Verse section 1:

E |------------||------|
B |------------||------|
F#|------------||-1/5b-| x2 (then go to section 2)
B |-0--00-0-00-||------|

Riff2 / Verse section 2:

E |-------------|
B |-------------|
F#|-------------| (repeat over and over)
B |-0-0-0-0-0-0-|

Riff3 / Pre-Chrous:

E |------------------|
B |------------------|
F#|-5\3/5b-/8\5\3/5b-| x4
B |------------------|

Riff4 / Chorus section 1:

E |-----------|
B |-----------|
F#|-----------| x3
B |-00-1-0-65-|

Riff5 / Chorus section 2:

E |---------|
B |---------|
F#|---------| x1 (go back to section 1)
B |-000--33-|

Riff6 / Pre Verse:

E |---|
B |---|
F#|---| ( Repeat listen to the track for the rythm)
B |-0-|

Riff7 / Verse section 1:

E |------------||------|
B |------------||------|
F#|------------||-1/5b-| x2 (then go to section 2)
B |-0--00-0-00-||------|

Riff7 / verse section 2:

E |-------------|
B |-------------|
F#|-------------| (repeat over and over)
B |-0-0-0-0-0-0-|

Riff8 / Chorus section 1:

E |-----------|
B |-----------|
F#|-----------| x3
B |-00-1-0-65-|

Riff8 / Chorus section 2:

E |---------|
B |---------|
F#|---------| x1 (go back to section 1)
B |-000--33-|

Riff9 / Mid Section section 1:
(there will be a little sample then the bass comes in)

E |----7-8----7-9-|
B |---0------0----| x1 (then go on to section 2)
F#|--0------0-----|
B |-0------0------|

Riff9 / Mid Section section 2:

E |----7-8-7----7-9-7----------|
B |---0--------0---------------| (keep reapting till the the next riff statrs)
F#|--0--------0----------------|
B |-0--------0--------0~~~~~~~~| (turn volume down slowly)

(when the drums start to play. Make sure your volume is off play an open Low B then 
turn volume up)

Riff10 / Verse section 1:

E |------------||------|
B |------------||------|
F#|------------||-1/5b-| x2 (then go to section 2)
B |-0--00-0-00-||------|

Riff10 / verse section 2:

E |-------------|
B |-------------|
F#|-------------| (repeat over and over)
B |-0-0-0-0-0-0-|

Riff11 / Chorus section 1:

E |-----------|
B |-----------|
F#|-----------| x3
B |-00-1-0-65-|

Riff11 / Chorus section 2:

E |---------|
B |---------|
F#|---------| x1 (go back to section 1)
B |-000--33-|

Riff12 / Outro:

E |---|
B |---|
F#|---| ( Repeat listen to the track for the rythm)
B |-0-|

Hope you enjoy this tab.
            
Submit corrections



        Orchids lessons Hard to play? Try these video lessons and learn fast Orchids lessons
        
↑ Back to top | Tablatures and chords for acoustic guitar and electric guitar, ukulele, drums are parodies/interpretations of the original songs. You may use it for private study, scholarship, research or language learning purposes only