» » »

Stone Sour - Hesitate Bass

Artists:  A B C D E F G H I J K L M N O P Q R S T U V W X Y Z # 

Hesitate Bass

(ver. 2) Click to play this song!
Stone Sour
 Rating:
4/5 (4 votes)


 Hesitate lessons Tabs too difficult? Try these video lessons and learn fast
 
                --------------------------------------------------------------------------
			     HESITATE - Stone Sour
-----------------------------------------------------------------------------


Tuning: 1/2 Step down (E flat,A flat,D flat,G flat)

Bass doesn't come in until right before first chorus (:48)

(Quick Buildup, just listen you'll hear it)
Gb|----------|
Db|----------|
Ab|--777777--|
Eb|----------|

CHORUS
Gb|------------------------------------------------|
Db|------------------------------------------------|
Ab|------------------------------------------------|
Eb|-7---7---7----7-6-4---4---4---4-7-0---0---0---0-|

Gb|-------------------|
Db|-------------------|
Ab|-----------7-7--7~-|
Eb|-7---7---7---------|

Gb|------------------------------------------------|
Db|------------------------------------------------|
Ab|------------------------------------------------|
Eb|-7---7---7----7-6-4---4---4---4-7-0---0---0---0-|

Gb|-------------------|
Db|-------------------|
Ab|-----------7-7--7~-|
Eb|-7---7---7---------|

REST UNTIL 1:35

VERSE
Gb|----------------------------------------|
Db|----------------------------------------|
Ab|-----------------2~------------------6~-|
Eb|-0~--2~--4~--0~------2~--0~--2~--4~-----|

(Quick Buildup, just listen you'll hear it)
Gb|----------|
Db|----------|
Ab|--777777--|
Eb|----------|

CHORUS
Gb|------------------------------------------------|
Db|------------------------------------------------|
Ab|------------------------------------------------|
Eb|-7---7---7----7-6-4---4---4---4-7-0---0---0---0-|

Gb|-------------------|
Db|-------------------|
Ab|-----------7-7--7~-|
Eb|-7---7---7---------|

Gb|------------------------------------------------|
Db|------------------------------------------------|
Ab|------------------------------------------------|
Eb|-7---7---7----7-6-4---4---4---4-7-0---0---0---0-|

Gb|-------------------|
Db|-------------------|
Ab|-----------7-7--7~-|
Eb|-7---7---7---------|
SOLO
Gb|---------------------------------------------|
Db|---------------------------------------------|
Ab|---------------------------------------------|
Eb|-0~--2~--4~--0~--2~--4~--0~--2~--4~-22222222-|

BRIDGE
Gb|---------------------------------------------------------------|
Db|---------------------------------------------------------------|
Ab|---------------------------------------------------------------|
Eb|-0000--2222--44444444--0000-2222-44444444--0000-2222-44444444--|

Gb|----------|
Db|----------|
Ab|----------|
Eb|-22222222-|

CHORUS
Gb|--------------------------------------------------------|
Db|--------------------------------------------------------|
Ab|--------------------------------------------------------|
Eb|-777777777777777-6-444444444444444-7-0000000000000000---|

Gb|------------------|
Db|------------------|
Ab|----------7-7--7~-|
Eb|-77777777---------|
Gb|--------------------------------------------------------|
Db|--------------------------------------------------------|
Ab|--------------------------------------------------------|
Eb|-777777777777777-6-444444444444444-7-0000000000000000---|

Gb|------------------|
Db|------------------|
Ab|----------7-7--7~-|
Eb|-77777777---------|

Gb|--------------------------------------------------------|
Db|--------------------------------------------------------|
Ab|--------------------------------------------------------|
Eb|-777777777777777-6-444444444444444-7-0000000000000000---|

Gb|------------------|
Db|------------------|
Ab|----------7-7--7~-|
Eb|-77777777---------|

Gb|--------------------------------------------------------|
Db|--------------------------------------------------------|
Ab|--------------------------------------------------------|
Eb|-777777777777777-6-444444444444444-7-0000000000000000---|

Gb|------------------|
Db|------------------|
Ab|----------7-7--7~-|
Eb|-77777777---------|
            
Submit corrections



        Hesitate lessons Hard to play? Try these video lessons and learn fast Hesitate lessons
        
↑ Back to top | Tablatures and chords for acoustic guitar and electric guitar, ukulele, drums are parodies/interpretations of the original songs. You may use it for private study, scholarship, research or language learning purposes only