» » »

Stone Sour - Hesitate Bass

Artists:  A B C D E F G H I J K L M N O P Q R S T U V W X Y Z # 

Hesitate Bass

(ver. 1) Click to play this song!
Stone Sour
 Rating:
4/5 (4 votes)


 Hesitate lessons Tabs too difficult? Try these video lessons and learn fast
 
                -------------------------------------------------------------------------------
			     HESITATE - Stone Sour
-------------------------------------------------------------------------------


Tuning: Half step down (D#G#C#F#/Eb Ab Db Gb)
The other bass tab for this is ALMOST perfect, I just polished it up to be 100% perfect! :)

No bass until the end of the 1st verse, just before the chorus.
F#|---------|
C#|---------|
G#|-77777777|
D#|---------|

CHORUS "I see you, but I can't feel you" through to "you hesitate"
F#|----------------------------------------------------------|    |-1st time-|-2nd time-|
C#|----------------------------------------------------------|    |--end on--|--end on--|
G#|----------------------------------------------------------|    |77~7~-----|77~~\-----|
D#|-77777777777776~644444444444447~70000000000000000777777777| x2 |----------|----------|

VERSE 2 ""We were one..." through to "I'll just keep the rest to me"
Bass comes in halfway through.
F#|--------------------------------------------------------|
C#|--------------------------------------------------------|
G#|---------------------2~~----------------6666666677777777|
D#|-0~~~~~~2~~4~~0~~~~~~---2~~0~~~~~~2~~4~~----------------|

CHORUS "I see you, but I can't feel you through to "you hesitate"
F#|----------------------------------------------------------|    |-1st time-|-2nd time-|
C#|----------------------------------------------------------|    |--end on--|--end on--|
G#|----------------------------------------------------------|    |77~7~-----|77~~\-----|
D#|-77777777777776~644444444444447~70000000000000000777777777| x2 |----------|----------|

SOLO
F#|--------------------------------------------------|
C#|--------------------------------------------------|
G#|--------------------------------------------------|
D#|-0~~2~~4~~~~0~~2~~4~~~~0~~2~~4~~~~2222222222222222|

BRIDGE "Oh we never made it" through to "I don't believe"
F#|-----------------------------------------------------------------|
C#|-----------------------------------------------------------------|
G#|-----------------------------------------------------------------|
D#|-0000222244444444000022224444444400002222444444442222222222222222|

CHORUS "I see you, but I can't feel you through to "you hesitate"
F#|---------------------------------------------------------------|
C#|---------------------------------------------------------------|
G#|----------------------------------------------------------77~7~|
D#|-77777777777776~644444444444447~70000000000000000777777777-----| x4


| /  slide up
| \  slide down
| h  hammer-on
| p  pull-off
| ~  vibrato
| +  harmonic
| x  Mute note
===============================================================================
            
Submit corrections



        Hesitate lessons Hard to play? Try these video lessons and learn fast Hesitate lessons
        
↑ Back to top | Tablatures and chords for acoustic guitar and electric guitar, ukulele, drums are parodies/interpretations of the original songs. You may use it for private study, scholarship, research or language learning purposes only