» » »

Stevie Ray Vaughan And Double Trouble - Give Me Back My Wig Live Tabs

Artists:  A B C D E F G H I J K L M N O P Q R S T U V W X Y Z # 

Give Me Back My Wig Live Tabs

(ver. 1) Click to play this song!
Stevie Ray Vaughan And Double Trouble
 Rating:
2.4/5 (22 votes)

 Give Me Back My Wig Live  lessons Tabs too difficult? Try these video lessons and learn fast
 
                 Intro
  Q=220(8=s8)
  E
 4/4
  Gtr I (El. Gtr. w/ light dist. / 1/2 step down)
   q  q  E E E E   q  q  E E E E   q  q  E E E E   q  q  E E E E
|-^0--0--0-0-0-0-|-0--0--0-0-0-0-|-0--0----0-0-0-|-0--0--0-0-0-0--|
|-^0--0--2-2-2-2-|-3--3--2-2-2-0-|-0--0--2-2-2-0-|-3--3--2-2-2-2--|
|-^0--0--------0-|-------------0-|-------------0-|-------0-0-0-0--|
|----------------|---------------|---------------|----------------|
|----------------|---------------|---------------|----------------|
|----------------|---------------|---------------|----------------|


  q  q  E E E E   q  q  E E E E   q  q  E E E E   q  E E E E Q
|-0--0--0-0-0-0-|-------0-0-0-0-|-0--0--0-0-0-0-|-0----0-0-0-0----|
|-0--0--2-2-2-0-|-3--3--2-2-2-0-|-0--0--2-2-2-0-|-3--3---2-2-2/---|
|-0-----------0-|-------------0-|-0--0----------|-----------------|
|---------------|---------------|---------------|-----------------|
|---------------|---------------|---------------|-----------------|
|---------------|---------------|---------------|-----------------|


  A
   q  q  E E E E   Q  Q  E E E E    q  q  E E E E   Q  Q  E E E E
|-^5--5--5-5-5-5-|-5--5--5-5-5-5-|-^5--5--5-5-5-5-|-5--5--5-5-5----|
|-^5--5--7-7-7-8-|-8--8--7-7-7-7-|-^5--5--7-7-7-8-|-8--8--7-7-7-0--|
|-^5--5--5-5-5---|-------5-5-5-5-|-^5--5--5-5-5---|-5--5--5-5-5-0--|
|----------------|---------------|----------------|----------------|
|----------------|---------------|----------------|----------------|
|----------------|---------------|----------------|----------------|


  E
  q  q  E E E E   q  q  E E E E   q  q  E E E E   q  q  E E E E
|-0--0--0-0-0-0-|----0--0-0-0-0-|-0--0--0-0-0-0-|-0--0--------0--|
|-0--0--2-2-2-0-|-3--3--2-2-2-0-|-0--0--2-2-2-2-|-3--3--2-2-2-0--|
|-0--0----------|-------------0-|-0--0----------|-------------0--|
|---------------|---------------|---------------|----------------|
|---------------|---------------|---------------|----------------|
|---------------|---------------|---------------|----------------|


  B                                    A
   Q  Q  E E E E    E E  E E E E Q     q  q  E E E E   q  q  E E Q
|-----7------7---|--7-7----7-7-7-7\--|-5--5--5-5-5---|-5--5--5-5-5\---|
|-/7--7--7-7---7-|-10---10---9-9-7\--|-5--5--7-7-7-8-|-8--8--7-7-7\---|
|-/7-----7-----7-|--7--------7---7\--|-5--5--5-5-5---|-------5-5-5\---|
|----------------|-------------------|---------------|----------------|
|----------------|-------------------|---------------|----------------|
|----------------|-------------------|---------------|----------------|


  E
  q  q  E E E E   q  q  E E E E   q  q  E E E E   e e e e Q  E E
|-0--0--------0-|-0-----0-0-0---|-0--0--0-0-0---|---0---0---------||
|-0--0--2-2-2---|-3--3--2-2-2---|-0--0--2-2-2-0-|-3---3---2--2-2--||
|-0--0----------|-------------0-|-0--0----------|-----------------||
|---------------|---------------|---------------|-----------------||
|---------------|---------------|---------------|-----------------||
|---------------|---------------|---------------|-----------------||


   1st & 2nd Verses
    E                        w/ slide
                               ~~~~~~~~~~~~~
    E E E E E E E E   E E E E  Q   Q     Q.   E E E E E   E E E E E E E E
||----0---0---0---0-|-0-0-0-0s12--12--|-12----0---0---0-|---0---0---0---0-|
||o---0---0---0---0-|-0-0-0-0s12--12--|-12----0---0---0-|---0---0---0---0-|
||----0---0---0---0-|-0-0-0-0s12------|-------0---0---0-|---0---0---0---0-|
||------------------|-----------------|-----------------|-----------------|
||o-----------------|-----------------|-----------------|-----------------|
||--0---------------|-----------------|-----------------|-----------------|


  E E E E q  e E   e E e E Q  E E   q  q  E E E E   q  e E E E E E
|---0-0-0------0-|---0---0--------|-0--0--0-0-0-0-|------0----------|
|---0-0-0-0--0-0-|-3---3---2--2-0-|-0--0--2-2-2---|-3--3---2-2-2----|
|-----0----------|--------------0-|-0--0----------|--------------0--|
|----------------|----------------|---------------|-----------------|
|----------------|----------------|---------------|-----------------|
|----------------|----------------|---------------|-----------------|


  A                   w/ slide
                             ~~~~~~~~~
  E E E E E E E E   E Q.  Q  Q    +Q.   E E E E E   E E E E E E E E
|---x---x---x---x-|----------5--|-(5)---0---0---0-|---0---0---0---0--|
|---x---x---x---x-|---0s==5--5--|-(5)---0---0---0-|---0---0---0---0--|
|---x---x---x---x-|---0s==5-----|-----------------|------------------|
|-----------------|-------------|-----------------|------------------|
|-----------------|-------------|-----------------|------------------|
|-----------------|-------------|-----------------|------------------|


  E
  +E  E E E q  q    q  e E E E E E   Q  Q  E E E E   q  e E E E E E
|-(0)-0-0-0-------|------0---0---0-|-0--0--0-0-0-0-|------0----------|
|-(0)-0-0-0-2--2--|-3--3-0-2---2-0-|-0--0--2-2-2-3-|-3--3---2-2-2----|
|-----------------|----------------|-0--0----------|--------------0--|
|-----------------|----------------|---------------|-----------------|
|-----------------|----------------|---------------|-----------------|
|-----------------|----------------|---------------|-----------------|


  B                                 A
  Q  E E Q  E E   E E E E E E E E   Q  Q  E E E E   Q  E E E E E E
|---------------|-----------------|---------------|------0---0---0--|
|-0--0-0--------|-----------------|---------------|------0---0---0--|
|-0--0-0------1-|---1---1---1---0-|----1----------|-0---------------|
|---------------|-----------------|---------------|-----------------|
|--------2--2---|-2---2---2---2---|-0-----0-0-0-0-|-----------------|
|---------------|-----------------|---------------|-----------------|


  E
  E E Q  q  e E   q  e E E E E E   q  q  E E E E   q  e E E E E E
|---0-0--0----0-|------0-----0-0-|-0--0--0-0-0-0-|------0---0-0-----||
|---0-0--2--2---|-3--3---2-2-2-0-|-0--0--2-2-2---|-3--3---2---2----o||
|-----0---------|----------------|-0--0----------|--------------0---||
|---------------|----------------|---------------|------------------||
|---------------|----------------|---------------|-----------------o||
|---------------|----------------|---------------|------------------||


 Guitar Solo
  E  w/ slide
        ~~~~~~~~~~~~                             ~~~~~~~~~~~~~~~~
    Q   Q   +E   Q.      +Q    E E E E Q    Q    H.         +Q    E E E E Q
|------12--(12)-12----|-(12)\-------------|----/12-------|-(12)\--------------|
|-/12--12--(12)-------|-------------------|----/12-------|-(12)\--------------|
|-/12-----------------|-------------------|--------------|--------------------|
|---------------------|-------------------|--------------|--------------------|
|---------------------|--------------2-4--|--------------|--------------2-4---|
|---------------------|--------0-0-4------|-0------------|--------0-0-4-------|


      ~~~~~~~~~~~~~~~~~~~~~~~~~~~~~~~~~
  Q   Q   +E   Q.      Q.    E  +E   Q   E
|----12--(12)-12----|-12----12-(12)-12--10s|
|----12--(12)-------|----------------------|
|-------------------|----------------------|
|-------------------|----------------------|
|-------------------|----------------------|
|-0-----------------|----------------------|


                      ~~    ~~~~~~~
   Q   Q   Q   Q      Q  E  E  +Q    E  E
|-12--11-----------|-----------------------|
|---------12-------|--------------------0--|
|-------------12/--|-----------------------|
|------------------|-14----14-(14)--14\----|
|------------------|-----------------------|
|------------------|-----------------------|


  A
        ~~~                                    ~~
    Q   H.          E  E  E   E  +Q.    E   Q  H.         E E E E +E  Q   E
|------17-------|-/17-17----------------3s|=5--5-------|-/5-5-------------0--|
|-/17-----------|--------17-------------3s|=5----------|------5-----------0--|
|---------------|-----------/17-(17)\---3s|=5----------|--------3-(3)-4\-----|
|---------------|-------------------------|------------|---------------------|
|---------------|-------------------------|------------|---------------------|
|---------------|-------------------------|------------|---------------------|


  E
  q  q  E E E E   q  q  E E E E   q  q  E E E E   q  e E E E E E
|-0--0--------0-|-------------0-|-0--0--------0-|------0-------5s==|
|-0--0--0-0-0-3-|-3--3--2-2-2-0-|-0--0--0-0-0---|-3--3---2-2-2-5s==|
|-0--0--0-------|-------------0-|-0--0----------|--------------5s==|
|---------------|---------------|---------------|------------------|
|---------------|---------------|---------------|------------------|
|---------------|---------------|---------------|------------------|


  B                                A
     ~~~~~~~~~~~~~~~~~
  Q  Q  +E  Q.     Q.   E E Q.      Q  Q  +E  Q.     Q  E E +E  Q   E
|-7--7--(7)------|-7--------7\---|-/5--5--(5)------|-5----------5\--0--|
|-7---------7----|------5s7------|------------5----|------5-(5)-----0--|
|-7--------------|------5s7------|-/5--------------|----5--------------|
|----------------|---------------|-----------------|----5--------------|
|----------------|---------------|-----------------|-------------------|
|----------------|---------------|-----------------|-------------------|


  E
  q  q  E E E E   q  q  E E E E   q  q  E E E E   q  q  E E E E
|-0--0--0-0-0---|-------0-0-0-0-|-0--0----0---0-|-------0-0-0-0--|
|-0-----2-2-2-0-|-3--3--2-2-2-0-|-0--0--2---2---|-3--3--2-2-2-0--|
|---------------|-------------0-|-0--0----------|-------------0--|
|---------------|---------------|---------------|----------------|
|---------------|---------------|---------------|----------------|
|---------------|---------------|---------------|----------------|


  E
  Q    Q   +E    Q.       Q.     Q   +E    Q
|---------------------|-----------------------|
|---------------------|-----------------------|
|----/11--(11)-/11----|-/11----/11--(11)-/11--|
|---------------------|-----------------------|
|---------------------|-----------------------|
|---------------------|-----------------------|


   +E    Q.     Q.     E    +Q     Q   +E    Q   E
|------------------------|--------------------------|
|------------------------|--------------------------|
|-(11)-/11----/11----/11-|-(11)--/11--(11)-/11s=12--|
|------------------------|--------------------------|
|------------------------|--------------------------|
|------------------------|--------------------------|


   ~~~~~~~~~~~~~
   Q.    E  +H        E  E  E   E  +E   E  Q
|-12----12-(12)----|-12-12--------------------|
|------------------|-------12-----------------|
|------------------|----------/12-(12)-12s10--|
|------------------|--------------------------|
|------------------|--------------------------|
|------------------|--------------------------|


   ~~              ~~~~~~~~~
   H    E  E   E   E    +Q.    E  +Q    E E
|--------------------|-----------------------|
|--------------------|------------------0-0--|
|--------------------|------------------0-0--|
|-14------14\----/14-|-(14)---14-(14)\-------|
|-------------14-----|-----------------------|
|--------------------|-----------------------|


  A
                                   ~~~~~~~
  Q    Q   +E    Q.      E  E  E   E  +H
|-0--/12--(12)-/12----|-12-12----/15-(15)----|
|-0-------------------|-------12-------------|
|---------------------|----------------------|
|---------------------|----------------------|
|---------------------|----------------------|
|---------------------|----------------------|


  Q    Q   +E    Q.      E  E  E   E  +E   Q   E
|-0--/12--(12)-/12----|-12-12----------------------|
|-0-------------------|-------12---------------0s==|
|---------------------|----------/12-(12)-12\--0s==|
|---------------------|----------------------------|
|---------------------|----------------------------|
|---------------------|----------------------------|


  E
  Q   Q  E E E E   q  e E E E E E   q  q  E E E E   q  e E E E E E
|-----0----0---0-|------0-------0-|-0--0--------0-|------0-------3s==|
|-9\--0--2-2-0---|-3--3---2-2-2-0-|-0--0--2-2-2---|-3--3---2-2-2-3s==|
|-9\--0--0-------|----------------|-0--0--2-2-2---|--------------3s==|
|----------------|----------------|---------------|------------------|
|----------------|----------------|---------------|------------------|
|----------------|----------------|---------------|------------------|


  B                                   A
                    ~~~~~~~~~~~~~~
  Q   Q  +E  Q.     Q  E E +E  Q.      Q   Q  +E  Q.     Q.   E +E  Q.
|-7--/7--(7)------|-7----------7----|-----/5--(5)------|-5----5-(5)-5\----|
|-7----------7----|------7-(7)------|-------------5----|------5-(5)-5\----|
|-7---------------|----7------------|-/5---------------|------------------|
|-----------------|-----------------|------------------|------------------|
|-----------------|-----------------|------------------|------------------|
|-----------------|-----------------|------------------|------------------|


  E
  q  q  E E E E   q  e E E E E E   q  q  E E E E   q  e E E E E E
|-0--0--0-0-0---|------0-------0-|-0--0----0-0-0-|------0----------||
|-0--0--2-2-2-0-|-3--3---2-2-2-0-|-0--0--2-2-2-0-|-3--3---2-2-2----||
|-0-----------0-|--------------0-|-0--0----------|--------------0--||
|---------------|----------------|---------------|-----------------||
|---------------|----------------|---------------|-----------------||
|---------------|----------------|---------------|-----------------||


 3rd Verse
  E
  E E E E E E E E   E E E E +E  E E E   E E E E E E E E   E E E E E E E E
|---0---0---0---0-|---0---0-(0)-0-0-0-|-0-----0---0---0-|---0---0---0---0--|
|---0---0---0---0-|---0---0-(0)-0-0-0-|-0-----0---0---0-|---0---0---0------|
|-------0---------|-------------------|---0-------0---0-|---0---0---0------|
|-----------------|-------------------|-----------------|------------------|
|-----------------|-------------------|-----------------|------------------|
|-----------------|-------------------|-----------------|------------------|


  +E  E E E q  e  E    E E E E Q  E E   q  q  E E E E   q  e E Q  Q
|-(0)-0-0-0------(0)-|---0---0----0---|-0--0--0-0-0-0-|------0--------|
|-----0-0-0-2--2-----|-3---3-0-2--2---|-0--0--2-2-2-2-|-3--3---2------|
|-----0-0-0----------|--------------0-|-0--0----------|-----------0---|
|--------------------|----------------|---------------|---------------|
|--------------------|----------------|---------------|---------------|
|--------------------|----------------|---------------|---------------|


  A
                             ~~~~~~~~~
  E E E E E E E E   E Q.  Q  Q    +Q.   E E E E E   E E E E E E E E
|---x---x---x---x-|----------5--|-(5)---0---0---0-|---0---0---0---0--|
|---x---x---x---x-|---0s==5--5--|-(5)---0---0---0-|---0---0---0---0--|
|---x---x---x---x-|---0s==5-----|-----------------|------------------|
|-----------------|-------------|-----------------|------------------|
|-----------------|-------------|-----------------|------------------|
|-----------------|-------------|-----------------|------------------|


  E
  +E  E E E q  q    q  e E E E E E   Q  Q  E E E E   q  e E E E E E
|-(0)-0-0-0-------|------0---0---0-|-0--0--0-0-0-0-|------0----------|
|-(0)-0-0-0-2--2--|-3--3-0-2---2-0-|-0--0--2-2-2-3-|-3--3---2-2-2----|
|-----------------|----------------|-0--0----------|--------------0--|
|-----------------|----------------|---------------|-----------------|
|-----------------|----------------|---------------|-----------------|
|-----------------|----------------|---------------|-----------------|


  B                                 A
  Q  E E Q  E E   E E E E E E E E   Q  Q  E E E E   Q  E E E E E E
|---------------|-----------------|---------------|------0---0---0--|
|-0--0-0--------|-----------------|---------------|------0---0---0--|
|-0--0-0------1-|---1---1---1---0-|----1----------|-0---------------|
|---------------|-----------------|---------------|-----------------|
|--------2--2---|-2---2---2---2---|-0-----0-0-0-0-|-----------------|
|---------------|-----------------|---------------|-----------------|


  E
  E E Q  q  e E   q  e E E E E E   q  q  E E E E   q  e E E E E E
|---0-0--0----0-|------0-----0-0-|-0--0--0-0-0-0-|------0---0-0----||
|---0-0--2--2---|-3--3---2-2-2-0-|-0--0--2-2-2---|-3--3---2---2----||
|-----0---------|----------------|-0--0----------|--------------0--||
|---------------|----------------|---------------|-----------------||
|---------------|----------------|---------------|-----------------||
|---------------|----------------|---------------|-----------------||


 Outro-Guitar Solo
  E   w/ slide
        ~~~~~~~~~~~~                             ~~~~~~~~~~~~~~~~
    Q   Q   +E   Q.      +Q    E E E E Q    Q    H.         +Q    E E E E Q
|------12--(12)-12----|-(12)\-------------|----/12-------|-(12)\--------------|
|-/12--12--(12)-------|-------------------|----/12-------|-(12)\--------------|
|-/12-----------------|-------------------|--------------|--------------------|
|---------------------|-------------------|--------------|--------------------|
|---------------------|--------------2-4--|--------------|--------------2-4---|
|---------------------|--------0-0-4------|-0------------|--------0-0-4-------|


          ~~~~~~~~~~~~~~~~~~    ~~~~~~~~~~~~~~~
  Q    E  E  +E   Q.      E Q   E  +E   Q    E
|----/12-12-(12)-12----|-12----12-(12)-12--/12-|
|----/12---------------|-----------------------|
|----/12---------------|----0------------------|
|----------------------|-----------------------|
|----------------------|-----------------------|
|-0--------------------|-----------------------|


                            ~~~~~~~~~~~~~
   +Q    E  E  +E   Q.      Q.    E  +E   Q   E
|-(12)--11---------------|-----------------------|
|-------11-12-(12)-------|--------------------0--|
|------------------12----|--------------------0--|
|------------------------|-14----14-(14)-14\-----|
|------------------------|-----------------------|
|------------------------|-----------------------|


  A
      ~
   Q  Q  +E  Q.     Q  +E    E +E  Q   E    Q  Q  +E  Q.     Q  E E +E  Q.
|-----5--(5)------|-5--(5)\--------5\----|-----5--(5)------|-5----------5\----|
|-/5---------5----|-5--(5)\--------------|------------5----|------5-(5)-------|
|-----------------|---------/5-(5)-----1-|-/5--------------|----5-------------|
|-----------------|----------------------|-----------------|------------------|
|-----------------|----------------------|-----------------|------------------|
|-----------------|----------------------|-----------------|------------------|


  E
  q  q  E E E E   E E E E E E E E   q  q  E E E E   e E E E Q  E E
|-0--0----0---0-|---0---0-------0-|-0--0--0-0-0---|---0---0------0--|
|-0--0--2---3---|-3---3-0-2-2-2-0-|-0--0--2-2-2-3-|-3---3---2--2-0--|
|-0--0----------|-----------------|-0--0----------|-----------------|
|---------------|-----------------|---------------|-----------------|
|---------------|-----------------|---------------|-----------------|
|---------------|-----------------|---------------|-----------------|


  B                                  A
  Q  Q  +E  Q.     Q.   E +E  Q  E   Q  E E E Q  E   E Q    E  +E   Q   E
|----------------|-0----------0--0-|---------------|------/12-(12)-12\--0--|
|----------------|------------0--0-|-------------0-|------/12-(12)-12\--0--|
|----1--(1)-1----|------1-(1)------|----0h1-1-1----|-1p0----------------0--|
|----------------|-----------------|---------------|-----------------------|
|-2--------------|-----------------|-0-------------|-----------------------|
|----------------|-----------------|---------------|-----------------------|


  E
  Q  q  E E E E   Q  E E E E E E
|-0--0--0-0-0---|------0-0-0-0-0-|
|----0--2-2-2-0-|-3--3---2-2-2-2-|
|----0--------0-|----------------|
|---------------|----------------|
|---------------|----------------|
|---------------|----------------|


           H.=H
                  ~~~~~~~~~~
  Q    Q     Q    Q     +W             E  Q  E H
|-0--/12\--/11--/12--|-(12)--------|-/15\-0---------*|
|-0--/12\--/11--/12--|-(12)--------|------0--0------*|
|--------------------|-------------|---------0------*|
|--------------------|-------------|----------------*|
|--------------------|-------------|----------------*|
|--------------------|-------------|----------------*|            
Submit corrections


        Give Me Back My Wig Live  lessons Hard to play? Try these video lessons and learn fast Give Me Back My Wig Live  lessons
        
↑ Back to top | Tablatures and chords for acoustic guitar and electric guitar, ukulele, drums are parodies/interpretations of the original songs. You may use it for private study, scholarship, research or language learning purposes only