Home » S » Steve Miller Band »

Steve Miller Band - Keep On Rockin Me Tabs

Artists:  A B C D E F G H I J K L M N O P Q R S T U V W X Y Z # 

Keep On Rockin Me Tabs

(ver. 1) Click to play this song!
Steve Miller Band
Steve Miller Band
                                 Keep On Rockin' Me Baby
                                     Tabed by KingSam
Really easy song- 2 different riffs-PLEASE RATE!

Intro- H=Hammer-On.

E---------------------------------------------------
B---------------------------------------------------
G----------9-9--------------------------------------
D-7-7-9--9-9-9-9-----9------9-----9---11-9----------
A-7-7-9--9-7-7-9-9h11--9h11---9h11--9h11-9----------
E-5-5-7--7-----7-------------------------7----------

Repeat 2 more times than do this:

E--------------------------------
B--------------------------------
G--------------------------------
D--------------------------------
A-----2-5---2------2-5---2-------
E-2-5-----5----2-5-----5---------


VERSE-/chorus repeat each note 16 times.

E-------------------------
B-------------------------
G-----9-------------------
D-9-7-9-9-----------------
A-9-7-7-9-----------------
E-7-5---7-----------------


Heres a little other part played in chorus while the verse part is still going on-

E--------------------------
B--------------------------
G--------------------------
D--------------------------
A-9-9-11-12-12-------------
E--------------------------
Thats it!- PLEASE RATE OR COMMENT -kingsam-
            
Submit corrections

↑ Back to top | Tablatures and chords for acoustic guitar and electric guitar, ukulele, drums are parodies/interpretations of the original songs. You may use it for private study, scholarship, research or language learning purposes only