» » »

Steve Earle - Guitar Town Tabs

Artists:  A B C D E F G H I J K L M N O P Q R S T U V W X Y Z # 

Guitar Town Tabs

(ver. 3) Click to play this song!
Steve Earle
 Rating:
4/5 (4 votes)

 Guitar Town lessons Tabs too difficult? Try these video lessons and learn fast
 
                After each verse:
e------------------------------------------------------------------------
b------------------------------------------------------------------------
G------------------------------------------------------------------------
D----------------0-------------------------------------------------------
A-------2-0---2---3------------3--2--0----------------3--2--0--2--0------
E--3--3-----3---------0--2--3-----------0-0---0--2--3----------------2--3


Last time:
e------------------------------------------------------------------------
b------------------------------------------------------------------------
G------------------------------------------------------------------------
D----------------0-------------------------------------------------------
A-------2-0---2---3------------3--2--0----------------3--2--0--2--0------
E--3--3-----3---------0--2--3-----------0-0---0--2--3----------------2--3

e------------------------------------------------------------------------
b------------------------------------------------------------------------
G------------------------------------------------------------------------
D----------------0-2-----------------------------------------------------
A-------2-0---2----------------3--2--0----------------3--2--0--2--0------
E--3--3-----3---------0--2--3-----------0-0---0--2--3----------------2--3
            
Submit corrections


        Guitar Town lessons Hard to play? Try these video lessons and learn fast Guitar Town lessons
        
↑ Back to top | Tablatures and chords for acoustic guitar and electric guitar, ukulele, drums are parodies/interpretations of the original songs. You may use it for private study, scholarship, research or language learning purposes only