» » »

Starting Line - Drama Summer Tabs

Artists:  A B C D E F G H I J K L M N O P Q R S T U V W X Y Z # 

Drama Summer Tabs

(ver. 1) Click to play this song!
Starting Line
 Rating:
4/5 (17 votes)


 Drama Summer lessons Tabs too difficult? Try these video lessons and learn fast
 
                Drop D-Tuning

Intro
You might have to figure out the strumming in the beginning but its really easy
e--------------------------------------------------|
B--------------------------------------------------|
G------7---------7---------7---------7---------7---|
D------0---------x---------x---------0---------x---|
A------x---------5---------7---------x---------5---|
D------9---------0---------0---------9---------0---|

e---------------------------------------------------|
B---------------------------------------------------|
G------7---------7---------7---------7--------------|
D------x---------0---------0---------0--------------|
A------5---------x---------x---------x--------------|
D----------------5---------9---------7--------------|
    -We-        -blow-    -cold-    -ends-----------|

e---------------------------------------------------|
B---------------------------------------------------|
G------7---------7---------7------------------------|
D------x---------0---------0------------------------|
A------5---------x---------x------------------------|
D----------------5---------9------------------------|
    -My-        -roll-    -again--------------------|

e---------------------------------------------------|
B---------------------------------------------------|
G------7---------7---------7------------------------|
D------x---------0---------0------------------------|
A------5---------x---------x------------------------|
D----------------7---------5------------------------|
    -Dizzy-    -Sun-    -strokes--------------------|

e--------------------------------------------------|
B--------------------------------------------------|
G------9---------7---------7-----------------------|
D------0---------0---------0-----------------------|
A------x---------x---------x-----------------------|
D------7---------5---------5-----------------------|
					-I’ll be-

e---------------------------------------------------|
B---------------------------------------------------|
G------7---------7---------7---------7--------------|
D------x---------0---------0---------0--------------|
A------5---------x---------x---------x--------------|
D----------------9---------7---------5--------------|
    -there-    -I’ll-    -try to-    -eyes----------|

e-------------|
B-------------|
G------7------|
D------x------|
A------5------|
D-------------|

e---------------------------------------------------|
B---------------------------------------------------|
G------7---------7---------7------------------------|
D------x---------0---------0------------------------|
A------5---------x---------x------------------------|
D----------------7---------5------------------------|
    -And-    -you-    -behind-----------------------|

e---------------------------------------------------|
B---------------------------------------------------|
G------7---------7---------7------------------------|
D------x---------0---------0------------------------|
A------5---------x---------x------------------------|
D----------------5----------------------------------|
    -Cross-    -And-    -winter---------------------|

e--------------------------------------------------|
B--------------------------------------------------|
G------7---------7---------7-----------------------|
D------x---------0---------0-----------------------|
A------5---------x---------x-----------------------|
D----------------7---------5-----------------------|
	-Paint-	-favorite color-

The Breakdown
e--------2-----------2----------2------2-----2----2----2---|
B------3---3-------3---3------3---3------3-----3----3------|
G----2-------2---2-------2--2-------2------2-----2----2----|
D--0-----------0-----------0----------0--------------------|
A----------------------------------------------------------|
D----------------------------------------------------------|

Play this 4 times after the Breakdown
e---------------------------------------------------|
B---------------------------------------------------|
G------7---------9---------7---------7--------------|
D------x---------x---------0---------0--------------|
A------5---------7---------x---------x--------------|
D--------------------------9---------5--------------|
    -Guess-    -I’ll-    -around-    -yeah----------|

On the third time Guitar 2 will play this
e-------------------------------------------|
B-------------------------------------------|
G-----11--------12-------14-----12/11/9/7---|
D------x---------x--------x------x/x-/x/x---|
A------9--------10-------12-----10/9-/7/5---|
D-------------------------------------------|

Outro
e---------------------------------------------------|
B---------------------------------------------------|
G------7---------9---------7---------7---------7----|
D------x---------x---------0---------0---------0----|
A------5---------7---------x---------x---------x----|
D--------------------------9---------7---------5----|

e---------------------------------------------------|
B---------------------------------------------------|
G----11---------7---------7---------7---------------|
D-----x---------0---------0---------0---------------|
A-----9---------x---------x---------x---------------|
D---------------9---------7---------5---------------|

e--------------------------------------------------|
B--------------------------------------------------|
G------7---------7---------7-----------------------|
D------x---------0---------0-----------------------|
A------5---------x---------x-----------------------|
D----------------7---------5-----------------------|
	-Paint-	-favorite color-


We Can wait for the wind to blow
Or give me a look so cold
Gives me chills and ends the summer warmth
My eyes roll, my eyes roll
Round and over again
Falling down dizzy with sun-stroke

I’ll be there
And I’ll try to identify
Try to look through the Grey skies
In your eyes
And pick up everything you left behind

Cross your fingers
And pray for winter
I’ll be there
Painting the town
Your favorite Color

Guess I’ll call or see you around
Guess I’ll call or see you around yeah

I’ll call or see you around
I’ll call or see you around yeah

Painting the town your favorite color
            
Submit corrections



        Drama Summer lessons Hard to play? Try these video lessons and learn fast Drama Summer lessons
        
↑ Back to top | Tablatures and chords for acoustic guitar and electric guitar, ukulele, drums are parodies/interpretations of the original songs. You may use it for private study, scholarship, research or language learning purposes only