Home » S » Spoon »

Spoon - Vittorio E Tabs

Artists:  A B C D E F G H I J K L M N O P Q R S T U V W X Y Z # 

Vittorio E Tabs

(ver. 2) Click to play this song!
Spoon
Tuning = odd. Not sure what it's called. Standard tuning with G string tuned up to A.

EADABE

Chords - Intro 2x

E --x---X--------x-------x-------------|
A --x---X--------x-------x-------------|
D --0---0-or X---0-or-x--0-or-x--------|
A --6---7--------7-------7-------------|
B --7---7--------4-------5-------------|
E --0---0--------0-------0-------------|


Chords - Verse x 3

E --x---X--------x-------x-------------|
A --x---X--------x-------x-------------|
D --0---0-or X---0-or-x--0-or-x--------|
A --6---7--------7-------x-------------|
B --7---7--------9-------11------------|
E --0---0--------0-------0-------------|

Chords - Verse/Bridge  x 1

E --x---X--------x-----------------------------------------------------|
A --x---X--------x-----------------------------------------------------|
D --0---0-or X---x-----------------------------------------------------|
A --6---7--------9-----------------------------------------------------|
B --7---7--------7-----------------------------------------------------|
E --0---0--------0-----------------------------------------------------|

Repeat twice

Chords - Chorus x1

2nd "So hold on..."

E --x---X--------x---x--------x---------------|
A --x---X--------x---x--------x---------------|
D --x---x--------0---0-or-x---x---------------|
A --7---x--------6---7--------9---------------|
B --7---9--------7---7--------7---------------|
E --5---5--------0---0--------0---------------|

Chords - Chorus cont'd x1

E --x---X--------x---x--------x--------x-----------------|
A --x---X--------x---x--------x--------x-----------------|
D --x---x--------0---0-or-x---0-or-x---0-or-x------------|
A --7---x--------6---7--------7--------7-----------------|
B --7---9--------7---7--------4--------5-----------------|
E --5---5--------0---0--------0--------0-----------------|

Then back the beginning for one more go round.
            
Submit corrections

↑ Back to top | Tablatures and chords for acoustic guitar and electric guitar, ukulele, drums are parodies/interpretations of the original songs. You may use it for private study, scholarship, research or language learning purposes only