» » »

Spiritual Beggars - Treading Water Bass

Artists:  A B C D E F G H I J K L M N O P Q R S T U V W X Y Z # 

Treading Water Bass

(ver. 1) Click to play this song!
Spiritual Beggars
 Rating:
4/5 (4 votes)


 Treading Water lessons Tabs too difficult? Try these video lessons and learn fast
 
                -------------------------------------------------------------------------------
                             TREADING WATER - Spiritual Beggars
                                    From the album - Demons
-------------------------------------------------------------------------------


The timing and structure are not 100% accurate, this is an outline, you need
to listen to where the parts go and proper timing.  This bass tab is not note
for note, the bass line is pretty busy.  If you want to know all the fills, it
will be great practice for your ear.  The bass in the song is also very hard 
to hear in the mix, it is very deep. 

There are only a couple riffs, you'll have to listen for their placement. 
I am also very bad at naming sections, so don't flame me for it. 
The solo riff is just the main riff moved up one whole step.  I put an approx
time so you have some reference in the tab.
The song closes  on the low open C.

Tuning: Drop C (Down one whole step with a drop D) tab is in relation to that

Main riff
G|---------------------------------------------------------------------------|
D|---------------------------------------------------------------------------|
A|---0---------1---1-0-1-3---3-1-0----0--------------------------------------|
E|-0-----0-2-3---------------------5-----------------------------------------|

This riff first heard around 0:31ish - Out of solo riff
G|---------------------------------------------------------------------------|
D|-------------------3-----5/6-5-3-------------------------------------------|
A|-5--5--3h5--5--3-5---5-----------5-3--5--5--3h5--5--5-3--------------------|
E|--------------------------------------------------------5-3----------------|

Verse
G|---------------------------------------------------------------------------|
D|---------------------------------------------------------------------------|
A|-----------1-1-1-1---3-3-3-3-----------------------------------------------|
E|-0-0-0-0-----------------------5-5---7-------------------------------------|

Into solo 2:00ish      -Solo
G|---------------------|-------------------------5---------------------------|
D|---------------------|-----------------------5-----------------------------|
A|-5-5--6-6--7-7--8-8--|--7-7--7-9-7---3--3--3------5--5--5-3-2-0--0-2-0-----|
E|---------------------|-------------------------------------------------5-4-|

Solo Continued - 2:08ish
G|-----------------------------------------------|---------------------------|
D|-----------------------------------------------|---------------------------|
A|---------------3---3-2-3---5-5---5-3-2-0-2--2--|------Into 2nd riff listed-|
E|--2-2---2--4-5---------------------------------|---------------------------|
            
Submit corrections



        Treading Water lessons Hard to play? Try these video lessons and learn fast Treading Water lessons
        
↑ Back to top | Tablatures and chords for acoustic guitar and electric guitar, ukulele, drums are parodies/interpretations of the original songs. You may use it for private study, scholarship, research or language learning purposes only