Home » S » Something For Kate »

Something For Kate - Monsters Tabs

Artists:  A B C D E F G H I J K L M N O P Q R S T U V W X Y Z # 

Monsters Tabs

(ver. 3) Click to play this song!
Something For Kate
                 Something For Kate - Monsters

This song is supposed to be played with a capo on the 1st fret but I don’t have a capo so I play it without a capo and it seems to sound or right to me.

Intro x 1
e|------------------------------------------------------------------|
B|------------------------------------------------------------------|
G|---------5-5-5-5---------5-5-5-5---------5-5-5-5----------*-*-*-*-|
D|-6-6-6-6-5-5-5-5-6-6-6-6—5-5-5-5-6-6-6-6-5-5-5-5-6-6-6-6--*-*-*-*-|
A|-6-6-6-6-3-3-3-3-6-6-6-6-3-3-3-3-6-6-6-6-3-3-3-3-6-6-6-6--*-*-*-*-|
E|-4-4-4-4---------4-4-4-4---------4-4-4-4---------4-4-4-4--*-*-*-*-|

Verse x 4
e|------------------------------------------------------------------|
B|------------------------------------------------------------------|
G|---------5-5-5-5-3-3-3-3-3-3-3-3---------3-3-3-3-5-5-5-5-5-5-5-5--|
D|-6-6-6-6-5-5-5-5-3-3-3-3-3-3-3-3-6-6-6-6-3-3-3-3-5-5-5-5-5-5-5-5--|
A|-6-6-6-6-3-3-3-3-1-1-1-1-2-2-3-3-6-6-6-6-1-1-1-1-3-3-3-3-4-4-5-5--|
E|-4-4-4-4-------------------------4-4-4-4--------------------------|

Chorus x 4
e|------------------------------------------------------------------|
B|------------------------------------------------------------------|
G|-7-7-7-7-7-7---5-5-5-5-5-5---3-3-3-3-3-3--------------------------|
D|-8-8-8-8-8-8---6-6-6-6-6-6---4-4-4-4-4-4--------------------------|
A|-8-8-8-8-8-8---6-6-6-6-6-6---4-4-4-4-4-4--------------------------|
E|-6-6-6-6-6-6---4-4-4-4-4-4---2-2-2-2-2-2--------------------------|

Verse x 4

Chorus x 4

Bridge x 3
e|--------------0-0-0-0--0-0-0-0---|
B|-7-7-6-7-6-7--3-3-3-3--3-3-3-3---|
G|-9-9-9-9-9-9--0-0-0-0--0-0-0-0---|
D|-8-8-8-8-8-8-—2-2-2-2--0-0-0-0---|
A|--------------3-3-3-3--*-*-*-*---|
E|-----------------------3-3-3-3---|

Post Bridge x 1
e|---------------------------------|
B|-1-1-1-1-1-1-1-1-1-1-1-1-1-1-1-1-|
G|-2-2-0-0-2-2-0-0-2-2-0-0-2-2-2-2-|
D|-3-3-3-3-3-3-3-3-3-3-3-3-3-3-3-3-|
A|-3-3-3-3-3-3-3-3-3-3-3-3-3-3-3-3-|
E|---------------------------------|

Finish x 8
e|------------------------------------------------------------------|
B|-1-1-1-1-1-0-0-0-0-0-3-3-3-3-3-3-3-3-3-3-3-3-3-3-3----------------|
G|-2-2-2-2-2-2-2-2-2-2-0-0-0-0-0-0-0-0-0-0-0-0-0-0-0----------------|
D|-2-2-2-2-2-2-2-2-2-2-0-0-0-0—0-2-2-2-2-2-3-3-3-3-3----------------|
A|---------------------2-2-2-2-2-3-3-3-3-3-3-3-3-3-3----------------|
E|---------------------3-3-3-3--------------------------------------|
            
Submit corrections

↑ Back to top | Tablatures and chords for acoustic guitar and electric guitar, ukulele, drums are parodies/interpretations of the original songs. You may use it for private study, scholarship, research or language learning purposes only