» » »

Soda Stereo - Disco Eterno Tabs

Artists:  A B C D E F G H I J K L M N O P Q R S T U V W X Y Z # 

Disco Eterno Tabs

(ver. 1) Click to play this song!
Soda Stereo
 Rating:
3.6/5 (7 votes)

 Disco Eterno lessons Tabs too difficult? Try these video lessons and learn fast
 
                Bueno, aqui esta mi versión de la canción de Soda Stereo
Disco Eterno. Es la versión del unplugged, y use el video, asi que
espero sea de su agrado. Segun yo es 100% o un 95% correcta.
La posición de los acordes son algo extraños, pero pude sacar uno que otro
si logran descubrir los otros agrdeceria que me informaran a mi correo
al final de la canción.

Intro1:

Guitarra Electrica

 e|--3h5-------------8/7|
 B|---------------------|
 G|---------------------|
 D|---------------------|
 A|---------------------|
 E|---------------------|

Intro2:
 e|---------------------|----------------------------|
 B|---------------------|----------------------------|
 G|---------------5h4---|---------------------2-0----|
 D|-----3-3--3----------|-------3-3h5-5h3------------| x4
 A|-3h5-------5h3-------|-3-3h5-----------5h3--------|
 E|---------------------|----------------------------|

Riff 1
 e|---------------------|-------------5-5------------|
 B|------------6-5-3h5--|-3--0--0-0---3-3-3----------|
 G|---------------------|-----------5-5-5-4-5h4------|
 D|-------3-------------|-----------------------5-0--|
 A|-3-3h5---5-----------|----------------------------|
 E|--------------------------------------------------|

Riff 2
 e|---------------------|----------------5---5--------7---|
 B|------------6-5-3h5--|-3--0--0-0-----------------------|
 G|---------------------|-----------5--5---5---5--5/7----7|
 D|-------3-------------|---------------------------------|
 A|-3-3h5---5-----------|---------------------------------|
 E|---------------------|---------------------------------|

Intro x2

 e|-------------|
 B|-------------|
 G|-------------|
 D|-------3-----|
 A|-3-3h5---5---|
 E|-------------|


D9    Fmaj7  Cadd9 Gmaj7
Me sali
            D9  Fmaj7  Cadd9  Gmaj7
Fuera de contexto
D9    Fmaj7  Cadd9 Gmaj7
Practicar
              D9   Fmaj7  Cadd9 Gmaj7
No te hace perfecto
D9       Fma7        Cadd9 Gmaj7
Poner un disco eterno
D9       Fmaj7  Cadd9 Gmaj7
Moverme tornasol


Coro:

Aadd9     Cadd9
Un espiritu
   Aadd9             Cadd9
A veces seguro otras veces incierto
Aadd9          Cadd9    Aadd9
Vengo a descubrir por que este deseo
Cadd9
Crece


Intro2 x2

 e|-------------|
 B|-------------|
 G|-------------|
 D|-------3/6---|
 A|-3-3h5-------|
 E|-------------|

D9         Fmaj7  Cadd9 Gmaj7
Entre los dos
             D9   Fmaj7  Cadd9 Gmaj7
Pasa un meridiano
D9   Fmaj7  Cadd9 Gmaj7
Latitud
             D9   Fmaj7  Cadd9 Gmaj7
De vidas paralelas
D9         Fmaj7      Cadd9 Gmaj7
Abrir el sueño stereo
D9        Fmaj7
Crear la dimensión

Aadd9      Cadd9
Sin disimular
   Add9               Cadd9
Me voy desnudando con cada sonido
Add9        Cadd9   Add9
Alta fidelidad cuando este deseo
Cadd9
Crece

Intro2 x4

 e|-------------|
 B|-------------|
 G|-------------|
 D|-------3-----|
 A|-3-3h5---5---|
 E|-------------|

Riff1 x1
Riff2 x1

Coro:

Aadd9     Cadd9
Un espiritu
   Aadd9             Cadd9
A veces seguro otras veces incierto
Aadd9          Cadd9    Aadd9
Vengo a descubrir por que este deseo
Cadd9
Crece

Intro1 x1

 e|-------------|
 B|-------------|
 G|-------------|
 D|---15/3------|
 A|---15/3------|
 E|---15/3------|

Y sigue tocando el bajo mas y mas...
Bueno, esto es lo que pude sacar, espero les guste!!!

Acordes:

D9    :XX0320 o X57955
Fmaj7 :X33210 o 6810666 (10 es el traste 10)
Cadd9 :032030 o X35733 
Gmaj7 :X54330 o 357333
Add9  :002420
            
Submit corrections


        Disco Eterno lessons Hard to play? Try these video lessons and learn fast Disco Eterno lessons
        
↑ Back to top | Tablatures and chords for acoustic guitar and electric guitar, ukulele, drums are parodies/interpretations of the original songs. You may use it for private study, scholarship, research or language learning purposes only