» » »

Social Distortion - Untitled Tabs

Artists:  A B C D E F G H I J K L M N O P Q R S T U V W X Y Z # 

Untitled Tabs

(ver. 1) Click to play this song!
Social Distortion
 Rating:
4/5 (4 votes)

 Untitled lessons Tabs too difficult? Try these video lessons and learn fast
 
                This is the main riff in the song. 
e|---------------------------------------------------------------------------| 
B|---------------------------------------------------------------------------| 
G|---6-6-6-6--6-6-6-6--3-3-3-3-3-3-3-6---------------------------------------| 
D|---6-6-6-6--6-6-6-6--3-3-3-3-3-3-3-6---------------------------------------| 
A|---4-4-4-4--3-3-3-3--1-1-1-1-1-1-1-3---------------------------------------| 
E|---------------------------------------------------------------------------| 

Other Riff
e|---------------------------------------------------------------------------| 
B|---------------------------------------------------------------------------| 
G|---6-6-6-6-6-6-6-6-------------------6-6-6-6-6-6-6-6-----------------------| 
D|---6-6-6-6-6-6-6-6--3-3-3-3-3-3-3-3--6-6-6-6-6-6-6-6--3-3-3-3-3-3-3-3------| 
A|---4-4-4-4-4-4-4-4--3-3-3-3-3-3-3-3--4-4-4-4-4-4-4-4--3-3-3-3-3-3-3-3------| 
E|--------------------1-1-1-1-1-1-1-1-------------------1-1-1-1-1-1-1-1------| 

e|---------------------------------------------------------------------------| 
B|---------------------------------------------------------------------------| 
G|---3-3-3-3-3-3-3-3---------------------------------------------------------| 
D|---3-3-3-3-3-3-3-3--3-3-3-3-3-3-3-3--4-4-4-4-4-4-4-4--3-3-3-3-3-3-3-3------| 
A|---1-1-1-1-1-1-1-1--3-3-3-3-3-3-3-3--4-4-4-4-4-4-4-4--3-3-3-3-3-3-3-3------| 
E|--------------------1-1-1-1-1-1-1-1--2-2-2-2-2-2-2-2--1-1-1-1-1-1-1-1------| 

you'll have to work the exact number of strums out your self as i don't think i got them exact :/
            
Submit corrections


        Untitled lessons Hard to play? Try these video lessons and learn fast Untitled lessons
        
↑ Back to top | Tablatures and chords for acoustic guitar and electric guitar, ukulele, drums are parodies/interpretations of the original songs. You may use it for private study, scholarship, research or language learning purposes only