» » »

Social Distortion - Pleasure Seeker Tabs

Artists:  A B C D E F G H I J K L M N O P Q R S T U V W X Y Z # 

Pleasure Seeker Tabs

(ver. 1) Click to play this song!
Social Distortion
 Rating:
4/5 (4 votes)

 Pleasure Seeker lessons Tabs too difficult? Try these video lessons and learn fast
 
                Intro 
e-0-0-0-0-2-2-0-2-3-3-3-3-2-2-2-2-- 
B-5-5-5-5-5-5-5-5-5-5-5-5-5-5-5-5-- 
G-4-4-4-4-4-4-4-4-4-4-4-4-4-4-4-4-- 
D---------------------------------- 
A---------------------------------- 
E---------------------------------- 

Verse 
e---------------------------------------- 
B---------------------------------------- 
G------------------12-12-12-12-11-11-11-- 
D-9--9-9-9-9-9-9-9-12-12-12-12-11-11-11--
A-9--9-9-9-9-9-9-9-10-10-10-10--9--9--9-- 
E-7--7-7-7-7-7-7-7-----------------------

Sorry i Havn't worked out the solo yet, :p
            
Submit corrections


        Pleasure Seeker lessons Hard to play? Try these video lessons and learn fast Pleasure Seeker lessons
        
↑ Back to top | Tablatures and chords for acoustic guitar and electric guitar, ukulele, drums are parodies/interpretations of the original songs. You may use it for private study, scholarship, research or language learning purposes only