» » »

Social Distortion - Another State Of Mind Tabs

Artists:  A B C D E F G H I J K L M N O P Q R S T U V W X Y Z # 

Another State Of Mind Tabs

(ver. 3) Click to play this song!
Social Distortion
 Rating:
4.4/5 (7 votes)

 Another State Of Mind lessons Tabs too difficult? Try these video lessons and learn fast
 
                Verse
E----------------------------------|
B----------------------------------|
G----------------------------------|
D--5-5-5-5-4-4-2-2-----------------|  4 Times
A--3-3-3-3-2-2-0-0-5-5-5-5-5-5-5-5-|
E------------------3-3-3-3-3-3-3-3-|

E------------------|
B------------------|
G------------------|
D--7-7-7-7-7-7-7-7-|
A--5-5-5-5-5-5-5-5-|
E------------------|

E----------------------------------|
B----------------------------------|
G----------------------------------|
D--5-5-5-5-4-4-2-2-----------------|  4 Times
A--3-3-3-3-2-2-0-0-5-5-5-5-5-5-5-5-|
E------------------3-3-3-3-3-3-3-3-|

Chorus

E----------------------------------|
B----------------------------------|
G----------------------------------|
D--7-7-7-7-7-7-7-7-----------------|
A--5-5-5-5-5-5-5-5-7-7-7-7-7-7-7-7-|
E------------------5-5-5-5-5-5-5-5-|

E----------------------------------|
B----------------------------------|
G----------------------------------|
D--5-5-5-5-5-5-5-5-----------------|
A--3-3-3-3-3-3-3-3-7-7-7-7-7-7-7-7-|
E------------------5-5-5-5-5-5-5-5-|

E----------------------------------|
B----------------------------------|
G----------------------------------|
D----------------------------------|
A--5-5-5-5-5-5-5-5-7-7-7-7-7-7-7-7-|
E--3-3-3-3-3-3-3-3-5-5-5-5-5-5-5-5-|

E----------------------------------|
B----------------------------------|
G----------------------------------|
D--5-5-5-5-5-5-5-5-----------------|
A--3-3-3-3-3-3-3-3-7-7-7-7-7-7-7-7-|
E------------------5-5-5-5-5-5-5-5-|

E----------------------------------------|
B----------------------------------------|
G----------------------------------------|
D----------------------------------------|
A--5-5-5-5-7-5-3-3-3-5-7-7-7-7-7-7-7-7-7-|
E--3-3-3-3-5-3-1-1-1-3-5-5-5-5-5-5-5-5-5-|

Repeat from beginning

Solo

E------------------------------|
B---9---9-9-9--9-9-9--9-9-9--9-|
G--7---7-7-7--7-7-7--7-7-7--7--|
D------------------------------|
A------------------------------|
E------------------------------|

E------------------------------|
B------------------------------|
G--4-4-4-3---------------------|
D---------4-4-4-4-4-4-4-4------|  3 Times
A------------------------------|
E------------------------------|

E-------------------------------|
B-------------------------------|
G-------------------------------|
D--3-4-6-6-6--------------------|
A-------------------------------|
E-------------------------------|

Repeat Chorus

Then you’re done
            
Submit corrections


        Another State Of Mind lessons Hard to play? Try these video lessons and learn fast Another State Of Mind lessons
        
↑ Back to top | Tablatures and chords for acoustic guitar and electric guitar, ukulele, drums are parodies/interpretations of the original songs. You may use it for private study, scholarship, research or language learning purposes only