» » »

Social Distortion - Another State Of Mind Tabs

Artists:  A B C D E F G H I J K L M N O P Q R S T U V W X Y Z # 

Another State Of Mind Tabs

(ver. 2) Click to play this song!
Social Distortion
 Rating:
3.6/5 (7 votes)

 Another State Of Mind lessons Tabs too difficult? Try these video lessons and learn fast
 
                intro

E-------------------------|
B------4444444444444444444|
G-------------------------|
D-------------------------|   
A-------------------------|
E-------------------------|
       PM.................

guitar 2
E-------------------------|
B-------------------------|
G-------------------------|
D---6666666---------------|   
A---6666666---------------|
E---4444444---------------|

verse
E-------------------------|
B-------------------------|
G-444433------------------|
D-4444334444--------------|   X3
A-2222114444--------------|
E-------2222--------------|

E-------------------------|
B-------------------------|
G-66-6-66-6-66-6----------|
D-66-6-66-6-66-6----------|   
A-44-4-44-4-44-4----------|
E-------------------------|

E-------------------------|
B-------------------------|
G-444433------------------|
D-4444334444--------------|   X3
A-2222114444--------------|
E-------2222--------------|

E-------------------------|
B-------------------------|
G-66-6-66-6-66-6----------|
D-66-6-66-6-66-6----------|   
A-44-4-44-4-44-4----------|
E-------------------------|

chorus (0:33)
E-----------------------------|
B-----------------------------|
G---------------444444444444--|
D--666666666666-444444444444--|   
A--666666666666-222222222222--|
E--444444444444---------------|

E-----------------------------|
B-----------------------------|
G-----------------------------|
D--6666666666666666-44-222----|   
A--6666666666666666-44-222----|
E--4444444444444444-22-000----|

E-----------------------------|
B-----------------------------|
G---------------444444444444--|
D--666666666666-444444444444--|   
A--666666666666-222222222222--|
E--444444444444---------------|

E-----------------------------------|
B-----------------------------------|
G-----------------------------------|
D--6666666666666666-44-222-4-66666--|   
A--6666666666666666-44-222-4-66666--|
E--4444444444444444-22-000-2-44444--|

verse
E-------------------------|
B-------------------------|
G-444433------------------|
D-4444334444--------------|   X3
A-2222114444--------------|
E-------2222--------------|

E-------------------------|
B-------------------------|
G-66-6-66-6-66-6----------|
D-66-6-66-6-66-6----------|   
A-44-4-44-4-44-4----------|
E-------------------------|

E-------------------------|
B-------------------------|
G-444433------------------|
D-4444334444--------------|   X3
A-2222114444--------------|
E-------2222--------------|

chorus 
E-----------------------------|
B-----------------------------|
G---------------444444444444--|
D--666666666666-444444444444--|   
A--666666666666-222222222222--|
E--444444444444---------------|

E-----------------------------|
B-----------------------------|
G-----------------------------|
D--6666666666666666-44-222----|   
A--6666666666666666-44-222----|
E--4444444444444444-22-000----|

E-----------------------------|
B-----------------------------|
G---------------444444444444--|
D--666666666666-444444444444--|   
A--666666666666-222222222222--|
E--444444444444---------------|

E-----------------------------------|
B-----------------------------------|
G-----------------------------------|
D--6666666666666666-44-222-4-66666--|   
A--6666666666666666-44-222-4-66666--|
E--4444444444444444-22-000-2-44444--|

pre solo
E-----------------------------|
B-----9-9-9-9-----------------|
G--88--8-8-8------------------|x2
D-----------------------------|   
A-----------------------------|
E-----------------------------|

solo
|-------—-----------------  3x      --------------------|
B|-------------------------          -------------------|
G|-/4-4-4-3----------------          -3-4--/6-6k--------|
D|----------4-4-4-4-4------          -------------------|
A|-------------------------          -------------------|
E|-------------------------          -------------------| k=keep note

chorus 
E-----------------------------|
B-----------------------------|
G---------------444444444444--|
D--666666666666-444444444444--|   
A--666666666666-222222222222--|
E--444444444444---------------|

E-----------------------------|
B-----------------------------|
G-----------------------------|
D--6666666666666666-44-222----|   
A--6666666666666666-44-222----|
E--4444444444444444-22-000----|

E-----------------------------|
B-----------------------------|
G---------------444444444444--|
D--666666666666-444444444444--|   
A--666666666666-222222222222--|
E--444444444444---------------|

E-----------------------------------|
B-----------------------------------|
G-----------------------------------|
D--6666666666666666-44-222-4-66666--|   
A--6666666666666666-44-222-4-66666--|
E--4444444444444444-22-000-2-44444--|

Outro:following the strum pattern,make a solo,it's easy 
e|--4----7----4------2-----0---2----------|
B|--4----7----4------2-----0---2----------|
G|----------------------------------------|
D|----------------------------------------|
A|----------------------------------------|
E|----------------------------------------|
            
Submit corrections


        Another State Of Mind lessons Hard to play? Try these video lessons and learn fast Another State Of Mind lessons
        
↑ Back to top | Tablatures and chords for acoustic guitar and electric guitar, ukulele, drums are parodies/interpretations of the original songs. You may use it for private study, scholarship, research or language learning purposes only