» » »

Social Distortion - Another State Of Mind Tabs

Artists:  A B C D E F G H I J K L M N O P Q R S T U V W X Y Z # 

Another State Of Mind Tabs

(ver. 1) Click to play this song!
Social Distortion
 Rating:
3.6/5 (5 votes)

 Another State Of Mind lessons Tabs too difficult? Try these video lessons and learn fast
 
                -------------------------------------------------------------------------------
-------------------------------------------------------------------------------

Tuning: Standard

Notes: This tabbed primarily from Mike Ness's guitar, Guitar 2 is hard to decipher 
what's played due to the heavy hi-end distortion. Constructive corrections if you find errors.


Intro
e|---------|
B|---------|
G|---------|
D|-5-5-5-5-|
A|-5-5-5-5-| x 12
E|-3-3-3-3-|

Verse (play twice)
e|---------------------------------|
B|---------------------------------|
G|-5-5-5-5-5-4-4-------------------|
D|-5-5-5-5-5-4-4-5-5-5-5-5-5-5-5-5-|
A|-3-3-3-3-3-2-2-5-5-5-5-5-5-5-5-5-| x 3
E|---------------3-3-3-3-3-3-3-3-3-|

e|---------------------------------|
B|---------------------------------|
G|-7-7-7-7-7-7-7-7-7-7-7-7-7-7-7-7-|
D|-7-7-7-7-7-7-7-7-7-7-7-7-7-7-7-7-|
A|-5-5-5-5-5-5-5-5-5-5-5-5-5-5-5-5-| 
E|---------------------------------|

Chorus (play twice)
e|---------------------------------|
B|---------------------------------|
G|---------------------------------|
D|-7-7-7-7-7-7-7-7-7-7-7-7-7-7-7-7-|
A|-7-7-7-7-7-7-7-7-7-7-7-7-7-7-7-7-|
E|-5-5-5-5-5-5-5-5-5-5-5-5-5-5-5-5-|

e|---------------------------------|
B|---------------------------------|
G|-5-5-5-5-5-5-5-5-5-5-5-5-5-5-5-5-|
D|-5-5-5-5-5-5-5-5-5-5-5-5-5-5-5-5-|
A|-3-3-3-3-3-3-3-3-3-3-3-3-3-3-3-3-|
E|---------------------------------|

e|---------------------------------|
B|---------------------------------|
G|---------------------------------|
D|-7-7-7-7-7-7-7-7-7-7-7-7-7-7-7-7-|
A|-7-7-7-7-7-7-7-7-7-7-7-7-7-7-7-7-|
E|-5-5-5-5-5-5-5-5-5-5-5-5-5-5-5-5-|

e|---------------------------------|
B|---------------------------------|
G|---------------------------------|
D|-5-5-5-5-5-5-5-5-5-3-3-3-3-3-5-5-|
A|-5-5-5-5-5-5-5-5-5-3-3-3-3-3-5-5-|
E|-3-3-3-3-3-3-3-3-3-1-1-1-1-1-3-3-|

e|---------------------------------|--------|
B|---------------------------------|-Break--|
G|---------------------------------|-On-----|
D|-7-7-7-7-7-7-7-7-7-7-7-7-7-7-7-7-|-Second-|
A|-7-7-7-7-7-7-7-7-7-7-7-7-7-7-7-7-|-Time---|
E|-5-5-5-5-5-5-5-5-5-5-5-5-5-5-5-5-|--------|

Verse (play twice)

Chorus (play twice)

Solo Rhythm I (timing irregular listen to song)-(see below for solo)
e|-----------------|
B|-----------------|
G|-----------------|
D|-7-7-7-7-7-7-7-7-|
A|-7-7-7-7-7-7-7-7-|
E|-5-5-5-5-5-5-5-5-|

Solo Rhythm II (play twice)
e|---------------------------------|
B|---------------------------------|
G|-5-5-5-5-5-4-4-------------------|
D|-5-5-5-5-5-4-4-5-5-5-5-5-5-5-5-5-|
A|-3-3-3-3-3-2-2-5-5-5-5-5-5-5-5-5-| x 3
E|---------------3-3-3-3-3-3-3-3-3-|

e|---------------------------------|
B|---------------------------------|
G|-7-7-7-7-7-7-7-7-7-7-7-7-7-7-7-7-|
D|-7-7-7-7-7-7-7-7-7-7-7-7-7-7-7-7-|
A|-5-5-5-5-5-5-5-5-5-5-5-5-5-5-5-5-| 
E|---------------------------------|

Chorus (play twice)

===============================================================================

Solo I
e|---------------|
B|--10--10-10-10-|
G|-9---9--9--9---| x 4
D|---------------|
A|---------------|
E|---------------|

Solo II
e|-----------------------------|
B|-----------------------------|
G|-5-5-5-(5)\4-4---------------|
D|---------------5--5--5-5-5-5-| x 3
A|-----------------------------|
E|-----------------------------|

e|-------------------------|
B|-------------------------|
G|-4-5-(5)/7-7-7-7-7-7-7-7-|
D|-------------------------|
A|-------------------------|
E|-------------------------|

| /  slide up
| \  slide down
| h  hammer-on
| p  pull-off
| ~  vibrato
| +  harmonic
| x  Mute note
===============================================================================
            
Submit corrections


        Another State Of Mind lessons Hard to play? Try these video lessons and learn fast Another State Of Mind lessons
        
↑ Back to top | Tablatures and chords for acoustic guitar and electric guitar, ukulele, drums are parodies/interpretations of the original songs. You may use it for private study, scholarship, research or language learning purposes only