» » »

Social Distortion - 1945 Tabs

Artists:  A B C D E F G H I J K L M N O P Q R S T U V W X Y Z # 

1945 Tabs

(ver. 3) Click to play this song!
Social Distortion
 Rating:
4/5 (4 votes)

 1945 lessons Tabs too difficult? Try these video lessons and learn fast
 
                tHIS CAN BE A HALF STEP DOWN OR STANDARD TUNING CAN SOUND ALRIGHT IF YOU DON'T HAVE A TUNER

VERSE AND CHORUS
E-------------------------------------------|
B-------------------------------------------|
G-------------------------------------------| 16 TIMES
D--7-6-----------------7-6------------------|
A--5-4-9-9-9-9-9-9-9-9-5-4-7-7-7-7-7-7-7-7--|
E------7-7-7-7-7-7-7-7-----5-5-5-5-5-5-5-5--|

(THIS IS ALL THE VERSES AND CHORUSES UNTIL THE 1ST SOLO)
 1ST SOLO

E------------|-----------|
B------------|-----------|
G--6-5-3-3-3-|-6-5-3-----|
D------------|-------6-6-|
A------------|-----------|
E------------|-----------|

E-----------------------|
B-----------------------|
G--6-5-3-5-6-5-3-5-6-5--|
D-----------------------|
A-----------------------|
E-----------------------|

E--------------------------------|---------|
B--------------------------------|-8-8-8-8-|
G--3///6\\\3///6\\\3///8\\\6\\\3-|-8-8-8-8-|
D--------------------------------|---------|
A--------------------------------|---------|
E--------------------------------|---------|

Repeat VERSE/ CHORUS 8 TIMES


2ND SOLO

E--------------------|--------------------------|
B--------------------|--------------------------|
G--Pickslide from the|bridge to the 8th fret----|
D--Pickslide from the|bridge to the 8th fret----|
A--------------------|--------------------------|
E--------------------|--------------------------|

E--------------------------------|
B--6-6-8-6---6----6------- /\ ---|
G--6-6-8-6---6----6-8-8\   /-----|
D----------8----8-------\_/------|
A--------------------------------|
E--------------------------------|

E-----------__--------------__--------------------|
B----------/  \------------/  \---------6-6---6-6-|
G--6-6-6-8/    \-6---6-8-8/    \-6-6----6-6---6-6-|
D--------------\/-8-8----------\/-8---8------8----|
A-------------------------------------------------|
E-------------------------------------------------|

E------------------6-6--|----/\6-6----/\6-6-|
B---6-6--6-6---6-8-6-6--|----/-6-6----/-6-6-|
G---6-6--6-6---6-8------|-8_/------8_/------|
D--8----8-----8---------|-------------------| REPEAT SECOND
A-----------------------|-------------------| PART 6 TIMES
E-----------------------|-------------------|

E--6-6---6-6-6-6-|------------6-6-||
B--6-6---6-6-6-6-|------------6-6-||
G----------------|-----6H8P6H8----||
D----------------|-6H8------------|| REPEAT SECOND
A----------------|----------------|| PART A COUPLE
E----------------|----------------|| OF TIMES

THEN REPEAT SECOND PART OF THE SECOND TO LAST LINE A COUPLE OF TIMES

THEN DO CHORUS 4 TIMES

AND THAT’S IT

MEANING OF SYMBOLS:

\         /\
 \        /
   \ ___ / = BEND

H= HAMMER ON

P= PULLOFF

/// OR \\\ = SLIDE


LINK TO THIS SONG
            
Submit corrections


        1945 lessons Hard to play? Try these video lessons and learn fast 1945 lessons
        
↑ Back to top | Tablatures and chords for acoustic guitar and electric guitar, ukulele, drums are parodies/interpretations of the original songs. You may use it for private study, scholarship, research or language learning purposes only