» » »

Social Distortion - 1945 Tabs

Artists:  A B C D E F G H I J K L M N O P Q R S T U V W X Y Z # 

1945 Tabs

(ver. 2) Click to play this song!
Social Distortion
 Rating:
4/5 (4 votes)

 1945 lessons Tabs too difficult? Try these video lessons and learn fast
 
                Social Distortion - 1945 

Verse/Chorus:
e|----------------------------------------------------------|
B|----------------------------------------------------------|
G|-4-4-4-4-4-4-7/6-2-2-2-2-2-2-7/6--------------------------|
D|-4-4-4-4-4-4-7/6-2-2-2-2-2-2-7/6--------------------------|
A|-2-2-2-2-2-2-5/4-0-0-0-0-0-0-5/4--------------------------|
E|----------------------------------------------------------|

Solo 1:
e|----------------------------------------------------------|x2
B|----------------------------------------------------------|
G|-4-4-4-4-4-4-7/6-2-2-2-2-2-2-7/6--------------------------|
D|----------------------------------------------------------|
A|----------------------------------------------------------|
E|----------------------------------------------------------|

e|--------------1/9----9------------------------------------|
B|--------------1/9----9------------------------------------|
G|-4-4-7-6-6-x4-1/9-x4-9-x6---------------------------------|
D|--------------1/9----9------------------------------------|
A|----------------------------------------------------------|
E|----------------------------------------------------------|


solo 2:
e|------------------------------------------------------------------------|
B|------------------------------------------------------------------------|
G|---6-10-8-6----6----6----6---8-8h10p8-6h8-8-8-8-8-6h8--8h10p8-6-6-6-6---|
D|-------------6-8b-6-8b-6-8b-------------------------------------8-8-----|
A|------------------------------------------------------------------------|
E|------------------------------------------------------------------------|

e|----------------------------------------------------66---66--66--66--66-|
B|----------------------------------------------------66---66--66--66--66-|
G|--8h10p8-6-6-6-6-----6-6---6-6---6-6---6-6--------8b---8b--8b--8b--8b---|
D|-----------8-8-----8-8-8-8-8-8-8-8-8-8-8-8-8-6vb------------------------|
A|------------------------------------------------------------------------|
E|------------------------------------------------------------------------|

e|---6--6--6--6--66-------------------------------------------------------|
B|---6--6--6--6--66---(do last to parts a couple of imes)-----------------|
G|-8b-8b-8b-8b-8b--r------------------------------------------------------|
D|------------------------------------------------------------------------|
A|------------------------------------------------------------------------|
E|------------------------------------------------------------------------|

e|------------------------------------------------------------------------|
B|--------------66-----------6b6b-----------66--------------------66------|
G|--------------66-----------6b6b-----------66-8b8br-6------------66------|
D|-------6-6h8-8--------6h8-8--------6-6h8-8--------------6-6hh8-8--------|
A|----6h8----------6h8-8----------6h8------------------6h8----------------|
E|------------------------------------------------------------------------|

e|------------------------------------------------------------------66-------|
B|------------6b6b-----------66-------------------------------------66-------|
G|------------6b6b-----------66-8b8b8br-(8b8r-6-6-2x)-66666666-8-(8b---8x)---|
D|-------6h8-8--------6-6h8-8-------------------8------8-8-8-8---------------|
A|--6h8-8----------6h8-------------------then-do-part-in-parenthesis---------|
E|----------------------------------------except-w/a-6-@-end-3x--------------|
            
Submit corrections


        1945 lessons Hard to play? Try these video lessons and learn fast 1945 lessons
        
↑ Back to top | Tablatures and chords for acoustic guitar and electric guitar, ukulele, drums are parodies/interpretations of the original songs. You may use it for private study, scholarship, research or language learning purposes only