» » »

Slipknot - Dead Memories Tabs

Artists:  A B C D E F G H I J K L M N O P Q R S T U V W X Y Z # 

Dead Memories Tabs

(ver. 1) Click to play this song!
Slipknot
 Rating:
3.4/5 (5 votes)

 Dead Memories lessons Tabs too difficult? Try these video lessons and learn fast
 
                (Intro)
Slipknot - Dead Memories Intro
Tuning: Drop B

It's okay to use this if you wanna tab the whole song but please give me credit ;)

This is a new song by Slipknot from "All Hope Is Gone"

C#||---------------------------|-----------------------------||
G#||---------------------------|-----------------------------||
E ||*--------------------------|----------------------------*||
B ||*--------8--------8-----8--|--------8---------8------8--*||
F#||------5--------5-----------|-----5---------5-------------||
B ||---5--------8--------6-----|--5---------5---------5------||
   
--------------------------|--------------------------|---------------------|
--------------------------|--------------------------|---------------------|
--------------------------|--------------------------|---------------------|
--------8--------8-----8--|--------8--------8-----8--|--5------8------6----|
-----5--------5-----------|-----5--------5-----------|--5------8------6----|
--5--------6--------8-----|--5--------5--------5-----|--5------8------6----|

----------------------------------|--------------------------|
----------------------------------|--------------------------|
----14--14\12--12\8--8\5--7-------|--------------------------|
----------------------------------|--------8--------8-----8--|
----12--12\10--10\6--6\3--5-------|-----5--------5-----------|
----------------------------------|--5--------8--------6-----|

----------------------------|--------------------------|
----------------------------|--------------------------|
----------------------------|--------------------------|
--------8---------8------8--|--------8--------8-----8--|
-----5---------5------------|-----5--------5-----------|
--5---------5---------5-----|--5--------6--------8-----|

--------------------------||
--------------------------||
--------------------------||
--------8--------8-----8--||
-----5--------5-----------||
--5--------5--------5-----||

Comment and rate please :]
            
Submit corrections


        Dead Memories lessons Hard to play? Try these video lessons and learn fast Dead Memories lessons
        
↑ Back to top | Tablatures and chords for acoustic guitar and electric guitar, ukulele, drums are parodies/interpretations of the original songs. You may use it for private study, scholarship, research or language learning purposes only