Home » S » Sky Sailing »

Sky Sailing - Tennis Elbow Tabs

Artists:  A B C D E F G H I J K L M N O P Q R S T U V W X Y Z # 

Tennis Elbow Tabs

(ver. 3) Click to play this song!
Sky Sailing
-------------------------------------------------------------------------------
                            TENNIS ELBOW  - Sky Sailing
-------------------------------------------------------------------------------

Tuning:Half Step down...
One of my first tabs I've done from scratch. So please be nice  :)

The intro might sound like this:
2 guitars are being used here: 1 for the rhythm (The one that goes on and on)and the
other for playing the high tones in the different bits of the song.

Guitar 1: (just keep playing this...)
e|----------------------------------------------------|
B|---------3-----------3-----------3--------0---------|
G|------0-----0-----0-----0-----0-----0--2-----2--0---|
D|-1s2-----------0-----------2------------------------|
A|----------------------------------------------------|
E|----------------------------------------------------|

e|----------------------------------------------------|
B|---------3-----------3-----------3--------1--0------|
G|------0-----0-----0-----0-----0-----0--2--------0---|
D|-1s2-----------0-----------2------------------------|
A|----------------------------------------------------|
E|----------------------------------------------------|

e|----------------------------------------------------|
B|---------3-----------3-----------3--------0---------|
G|------0-----0-----0-----0-----0-----0--2-----2--0---|
D|-1s2-----------0-----------2------------------------|
A|----------------------------------------------------|
E|----------------------------------------------------|

e|----------------------------------------------------|
B|---------3-----------3-----------3------------------|
G|------0-----0-----0-----0-----0-----0---------------|
D|-1s2-----------0-----------2------------------------|
A|----------------------------------------------------|
E|----------------------------------------------------|

Guitar 2:(while guitar 1 is still playing)

e|--5--7--5--3---5--3--|--3--2--3------5--3--|
B|---------------------|-----------3---------|
G|---------------------|---------------------|
D|---------------------|---------------------|
A|---------------------|---------------------|
E|---------------------|---------------------|


e|--5--7--5--3---5--3--|--1s2--3--2--3--2--3--3--3--3------|
B|---------------------|-----------------------------------|
G|---------------------|-----------------------------------|
D|---------------------|-----------------------------------|
A|---------------------|-----------------------------------|
E|---------------------|-----------------------------------|

Verse 1:

Guitar1:
e|----------------------------------------------------|
B|---------3-----------3-----------3--------0---------|
G|------0-----0-----0-----0-----0-----0--2-----2--0---|
D|-1s2-----------0-----------2------------------------|
A|----------------------------------------------------|
E|----------------------------------------------------|
   Cellphones,               and travel stations
e|----------------------------------------------------|
B|---------3-----------3-----------3--------1--0------|
G|------0-----0-----0-----0-----0-----0--2--------0---|
D|-1s2-----------0-----------2------------------------|
A|----------------------------------------------------|
E|----------------------------------------------------|
   Ringtones and             new relations
e|----------------------------------------------------|
B|---------3-----------3-----------3--------0---------|
G|------0-----0-----0-----0-----0-----0--2-----2--0---|
D|-1s2-----------0-----------2------------------------|
A|----------------------------------------------------|
E|----------------------------------------------------|
  Say hello,                  to all your friens for me
e|----------------------------------------------------|
B|---------3-----------3-----------3------------------|
G|------0-----0-----0-----0-----0-----0---------------|
D|-1s2-----------0-----------2------------------------|
A|----------------------------------------------------|
E|----------------------------------------------------|
  eeeeeeee.....

e|----------------------------------------------------|
B|---------3-----------3-----------3--------0---------|
G|------0-----0-----0-----0-----0-----0--2-----2--0---|
D|-1s2-----------0-----------2------------------------|
A|----------------------------------------------------|
E|----------------------------------------------------|
   Several calls,              are made to Thailand.
e|----------------------------------------------------|
B|---------3-----------3-----------3--------1--0------|
G|------0-----0-----0-----0-----0-----0--2--------0---|
D|-1s2-----------0-----------2------------------------|
A|----------------------------------------------------|
E|----------------------------------------------------|
   Wound up in,                 Prince Edward island
e|----------------------------------------------------|
B|---------3-----------3-----------3--------0---------|
G|------0-----0-----0-----0-----0-----0--2-----2--0---|
D|-1s2-----------0-----------2------------------------|
A|----------------------------------------------------|
E|----------------------------------------------------|
  And my head,                 Feels like its ready to blow
e|----------------------------------------------------|
B|---------3-----------3-----------3------------------|
G|------0-----0-----0-----0-----0-----0---------------|
D|-1s2-----------0-----------2------------------------|
A|----------------------------------------------------|
E|----------------------------------------------------|
  oooooohhh.

Guitar 2 enters again:(while guitar 1 is still playing)

e|--5--7--5--3---5--3--|--3--2--3------5--3--|
B|---------------------|-----------3---------|
G|---------------------|---------------------|
D|---------------------|---------------------|
A|---------------------|---------------------|
E|---------------------|---------------------|

e|--5--7--5--3---5--3--|--1s2--3--2--3--2--3--3--3--3------|
B|---------------------|-----------------------------------|
G|---------------------|-----------------------------------|
D|---------------------|-----------------------------------|
A|---------------------|-----------------------------------|
E|---------------------|-----------------------------------|


Verse2:

Guitar1:
e|----------------------------------------------------|
B|---------3-----------3-----------3--------0---------|
G|------0-----0-----0-----0-----0-----0--2-----2--0---|
D|-1s2-----------0-----------2------------------------|
A|----------------------------------------------------|
E|----------------------------------------------------|
   I served,              and scratched a rainbow
e|----------------------------------------------------|
B|---------3-----------3-----------3--------1--0------|
G|------0-----0-----0-----0-----0-----0--2--------0---|
D|-1s2-----------0-----------2------------------------|
A|----------------------------------------------------|
E|----------------------------------------------------|
   So curved,                I felt the pain go
e|----------------------------------------------------|
B|---------3-----------3-----------3--------0---------|
G|------0-----0-----0-----0-----0-----0--2-----2--0---|
D|-1s2-----------0-----------2------------------------|
A|----------------------------------------------------|
E|----------------------------------------------------|
  Through my joints           And now I don't wanna play
e|----------------------------------------------------|
B|---------3-----------3-----------3------------------|
G|------0-----0-----0-----0-----0-----0---------------|
D|-1s2-----------0-----------2------------------------|
A|----------------------------------------------------|
E|----------------------------------------------------|
  aaaayyyyy.....

e|----------------------------------------------------|
B|---------3-----------3-----------3--------0---------|
G|------0-----0-----0-----0-----0-----0--2-----2--0---|
D|-1s2-----------0-----------2------------------------|
A|----------------------------------------------------|
E|----------------------------------------------------|
   Swinging down,             I set the birdie
e|----------------------------------------------------|
B|---------3-----------3-----------3--------1--0------|
G|------0-----0-----0-----0-----0-----0--2--------0---|
D|-1s2-----------0-----------2------------------------|
A|----------------------------------------------------|
E|----------------------------------------------------|
   Downtown,                at seven thirty
e|----------------------------------------------------|
B|---------3-----------3-----------3--------0---------|
G|------0-----0-----0-----0-----0-----0--2-----2--0---|
D|-1s2-----------0-----------2------------------------|
A|----------------------------------------------------|
E|----------------------------------------------------|
And I'm convinced,            That I've got tennis elbow
e|----------------------------------------------------|
B|---------3-----------3-----------3------------------|
G|------0-----0-----0-----0-----0-----0---------------|
D|-1s2-----------0-----------2------------------------|
A|----------------------------------------------------|
E|----------------------------------------------------|
  oooooohhh.

Guitar 2 enters again:(while guitar 1 is still playing)

e|--5--7--5--3---5--3--|--3--2--3------5--3--|
B|---------------------|-----------3---------|
G|---------------------|---------------------|
D|---------------------|---------------------|
A|---------------------|---------------------|
E|---------------------|---------------------|


e|--5--7--5--3---5--3--|--1s2--3--2--3--2--3--3--3--3------|
B|---------------------|-----------------------------------|
G|---------------------|-----------------------------------|
D|---------------------|-----------------------------------|
A|---------------------|-----------------------------------|
E|---------------------|-----------------------------------|

*For the guitar 2, in the last bit (|--1s2--3--2--3--2--3--3--3--3------|), you can just 
pluck the 1s2 then hammer on to the next fret then pull-off, then hammer then pull then 
so forth to produce a smooth and fading effect to it...

Bridge in not yet finish, but you can use the above tabs for it to (as substitute)
I'll try to do it (as soon as I can)
Thanks!!!
~Enjoy :)


************************************

| /   slide up
| \   slide down
| h   hammer-on
| p   pull-off
| ~   vibrato
| +   harmonic
| x   Mute note
| b   Bend
| pb  Pre-bend
| br  Bend release
| pbr Pre-bend release
| brb Bend release bend

************************************
            
Submit corrections

↑ Back to top | Tablatures and chords for acoustic guitar and electric guitar, ukulele, drums are parodies/interpretations of the original songs. You may use it for private study, scholarship, research or language learning purposes only