» » »

Sisters Of Mercy - Temple Of Love Bass

Artists:  A B C D E F G H I J K L M N O P Q R S T U V W X Y Z # 

Temple Of Love Bass

(ver. 1) Click to play this song!
Sisters Of Mercy
 Rating:
4/5 (7 votes)


 Temple Of Love lessons Tabs too difficult? Try these video lessons and learn fast
 
                

The guitar intro:
G|-----99-------77-----------------------------|
D|---99--99---77--77-----77-99-1010-99-77-9----|
A|-77-------55---------77----------------------|
E|-------------------55------------------------|

G|-----99-------77-----------------------------||
D|---99--99---77--77-----77-99-1010-99-77-5----||
A|-77-------55---------77----------------------||
E|-------------------55------------------------||

Riff 1:

G|---------------------------------------------||
D|---------------------------------------------||
A|-77777777h5p7777777-00-22-33-55-00-22-33-55--||
E|---------------------------------------------||

Riff 2:

G|--------------------------------------------||
D|--------------------------------------------||
A|--------------------------------------------||
E|-0000000/3--333333/5--555555555-77-88-1010--||

Riff 3:

G|-----------------------------||
D|-----------------------------||
A|-7----5----0----00-22-33-55--||
E|-----------------------------||

Riff 4:

G|-----------------||
D|-----------------||
A|-7----5----0-----||
E|-----------------||
            
Submit corrections



        Temple Of Love lessons Hard to play? Try these video lessons and learn fast Temple Of Love lessons
        
↑ Back to top | Tablatures and chords for acoustic guitar and electric guitar, ukulele, drums are parodies/interpretations of the original songs. You may use it for private study, scholarship, research or language learning purposes only