» » »

Simple Plan - Happy Together Bass

Artists:  A B C D E F G H I J K L M N O P Q R S T U V W X Y Z # 

Happy Together Bass

(ver. 1) Click to play this song!
Simple Plan
 Rating:
4/5 (4 votes)


 Happy Together lessons Tabs too difficult? Try these video lessons and learn fast
 
                Simple Plan
Happy Together (Freaky Friday Soundtrack)
I've updated this cause there were some parts that were wrong, but it's perfect now.
RATE AND COMMENT

~ Hold Note
. Palm Mute

Intro (0:04)
G|-----------------------------|---------------|-----------------|
D|-----------------------------|---------------|-----------------|
A|------------------------5555-|--5--4--2--0---|------------5~---|
E|--------------5555-0000------|---------------|--5555-0000------|

Verse 1 (just guitar)


Chorus (x2)
G|-------------------------------------|
D|-------------------------------------|
A|-9-9-9-9-7-7-7-7-9-9-9-9-12-12-12-12-|
E|-------------------------------------|

Verse 2
G|---------------------------------------------------------------------|
D|---------------------------------------------------------------------|
A|-9-9-9-9-9-9-9-9-7-7-7-7-7-7-7-7-5-5-5-5-5-5-5-5-4-4-4-4-4-4-4-4/9~--|
E|---------------------------------------------------------------------|


G|---------------------------------------------------------------------|
D|---------------------------9-7-6-----------4-5-7---------------------|
A|-9-9-9-9-9-9-9-9-7-7-7-7-7-------5-5-5-5-5-------4-4-4-4-4-4-4-4/9~--|
E|---------------------------------------------------------------------|

Chorus (x2)
G|-------------------------------------|
D|-------------------------------------|
A|-9-9-9-9-7-7-7-7-9-9-9-9-12-12-12-12-|
E|-------------------------------------|


Solo (x4)                        Then This
G|-----------------------------|--------------|
D|-----------------------------|--------------|
A|-----------------------------|--------------|
E|-22-55-0-0-0-0-0-0-----------|--0-1-4-------|

Bridge (1:50)
G|--------------------|
D|--------------------|
A|--4--4--4444--4444--|
E|--------------------|

Chorus (x2)
G|-------------------------------------|
D|-------------------------------------|
A|-9-9-9-9-7-7-7-7-9-9-9-9-12-12-12-12-|
E|-------------------------------------|

Outro (x5)
G|--------------------|
D|--------------------|
A|-4-4-4-4------------|
E|---------2-2-2-2----|

G|-----------|
D|-----------|
A|-4-4-4-4---|
E|---------2-|
            
Submit corrections



        Happy Together lessons Hard to play? Try these video lessons and learn fast Happy Together lessons
        
↑ Back to top | Tablatures and chords for acoustic guitar and electric guitar, ukulele, drums are parodies/interpretations of the original songs. You may use it for private study, scholarship, research or language learning purposes only