» » »

Silversun Pickups - Sort Of Tabs

Artists:  A B C D E F G H I J K L M N O P Q R S T U V W X Y Z # 

Sort Of Tabs

(ver. 2) Click to play this song!
Silversun Pickups
 Rating:
4/5 (4 votes)

 Sort Of lessons Tabs too difficult? Try these video lessons and learn fast
 
                -------------------------------------------------------------------------------
                           Sort Of - Silversun Pickups
-------------------------------------------------------------------------------

Tuning: Standard

My second Silversun Tab... check out It's Nice to Know you Work Alone
for me, !!!

I sat down after attempting to learn Panic Switch (the solo on that song
still gets me), and got jumped to this one.  This one is one of my
favorite songs to play, but I'm still not 100% sure about the Chorus or
the 5th part of the solo.  Check it and let me know!

ending IS NOT the correct ending of the chorus.  his hand was down at fret 14~.  
they kicked ass here in Richmond.  The solo's pretty nasty to time down properly.

Main Riff
e|-------------------------------------------------------------------------|
B|-------------------------------------------------------------------------|
G|-------------------------------------------------------------------------|
D|-------------------------------------------------------------------------|
A|-------------------------------------------5-----7----------5-----7------|
E|---1--3--5--7--8----1--3--5--7--8----5--8-----8-------5--8-----8---------|x5

e|--------------------------------------------|
B|--------------------------------------------|
G|--------------------------------------------|
D|--------------------------------------------|
A|------------------------------------7-------|
E|---1--3--5--7--8----3--5--3--8--7---5-------|
                                      ^ Strum a lot for verse 2

Pre-Chorus
e|-------------------------------------------------|
B|-------------------------------------------------|
G|-------------------------------------------------|
D|----------------------------------5-------(5)----|
A|------7-----5--3---------7-----5--3---3---(5)----|
E|---5-----3-----1------5-----3---------1---(3)----|x2
                                             ^ only played on 3rd pre-chorus


Chorus
e|---------------------------------------------------------------------------|
B|---------------------------------------------------------------------------|
G|---------------------------------------------------------------------------|
D|---7-7-7-7-7-7-7-7-10-10-10-10-10-10-10-10-5-5-5-5-5-5-5-5-9-9-9-9-9-9-9-9-|
A|---7-7-7-7-7-7-7-7-10-10-10-10-10-10-10-10-5-5-5-5-5-5-5-5-9-9-9-9-9-9-9-9-|
E|---5-5-5-5-5-5-5-5--8--8--8--8--8--8--8--8-3-3-3-3-3-3-3-3-7-7-7-7-7-7-7-7-|

(ending)
e|----------------------------------------|
B|----------------------------------------|
G|----------------------------------------|
D|---7-7-7-7-7-7-7-7-3-3-3-3-3-3-3-3-5~---|
A|---7-7-7-7-7-7-7-7-3-3-3-3-3-3-3-3-5~---|
E|---5-5-5-5-5-5-5-5-1-1-1-1-1-1-1-1-3~---|

Bridge
e|---------------------------------------------|
B|---------------------------------------------|
G|---------------------------------------------|
D|---7----9---10----12----7----9----10----12---|
A|---5----7----8----10----5----7-----8----10---|
E|---------------------------------------------|

Solo
e|--------------------------------------|
B|--------------------------------------|
G|---141414141414141414(141414141414)b--|
D|--------------------------------------|
A|--------------------------------------|
E|--------------------------------------|
*Those are 14s

e|-----------------------------------------------------------------|
B|-----------------------------------------------------------------|
G|-----------------------------------------------------------------|
D|---7-5h7-5h7-5h10-9h10-9h10-1212-10h12-10h14-12p14-12p14---------|
A|-----------------------------------------------------------------|
E|-----------------------------------------------------------------| x2

e|--------------------------------------------------------------|
B|--------------------------------------------------------------|
G|--------------------------------------------------------------|
D|--------------------------------------------------------------|
A|---8-7h8-7h8-7h12-10h12-10h12-1414-12h14-12h15-14h15-14h15----|
E|--------------------------------------------------------------| x2

e|-----------------------------------------------------------------|
B|-----------------------------------------------------------------|
G|-----------------------------------------------------------------|
D|---7-5h7-5h7-5h10-9h10-9h10-1212-10h12-10h14-12p14-12p14---------|
A|-----------------------------------------------------------------|
E|-----------------------------------------------------------------| x2


e|--------------------------------------------------------------|
B|--------------------------------------------------------------|
G|--------------------------------------------------------------|
D|--------------------------------------------------------------|
A|---8-7h8-7h8-7h12-10h12-10h12-1414-12h14-12h15-14h15-14h15----|
E|--------------------------------------------------------------| x2

e|------------------------------------------------------------------|
B|------------------------------------------------------------------|
G|------------------------------------------------------------------|
D|------------------------------------------------------------------|
A|---10-9h10-9h10-9h12-10h12-10h12-1414-12h14-12h15-14h15-14h15-----|
E|------------------------------------------------------------------| x2

e|-----------------------------------------------------------------|
B|-----------------------------------------------------------------|
G|-----------------------------------------------------------------|
D|---7-5h7-5h7-5h10-9h10-9h10-1212-10h12-10h14-12p14-12p14---------|
A|-----------------------------------------------------------------|
E|-----------------------------------------------------------------| x2

e|-------------------------------------|
B|-------------------------------------|
G|---141414141414141414(1414141414)b---|
D|-------------------------------------|
A|-------------------------------------|
E|-------------------------------------|
End Solo


ORDER

[Main Riff]
[Pre-Chorus]
[Chorus]
[Main Riff]
[Pre-Chorus]
[Chorus]
[Bridge]
[Solo]
[Pre-Chorus]
[Chorus]


| /  slide up
| \  slide down
| h  hammer-on
| p  pull-off
| ~  vibrato
| +  harmonic
| x  Mute note
===============================================================================
            
Submit corrections


        Sort Of lessons Hard to play? Try these video lessons and learn fast Sort Of lessons
        
↑ Back to top | Tablatures and chords for acoustic guitar and electric guitar, ukulele, drums are parodies/interpretations of the original songs. You may use it for private study, scholarship, research or language learning purposes only