» » »

Silversun Pickups - Sort Of Tabs

Artists:  A B C D E F G H I J K L M N O P Q R S T U V W X Y Z # 

Sort Of Tabs

(ver. 1) Click to play this song!
Silversun Pickups
 Rating:
4/5 (4 votes)

 Sort Of lessons Tabs too difficult? Try these video lessons and learn fast
 
                -------------------------------------------------------------------------------
-------------------------------------------------------------------------------

Tuning: Standard

Intro/ Verse: (00:00 - 00:46)

e|------------------------------------------------------|
B|------------------------------------------------------| 
G|------------------------------------------------------|
D|------------------------------------------------------| (5x)
A|------------------------------------5---7------5---7--|
E|--1-\3-\5-\7-\8--1-\3-\5-\7-\8--5-8---8----5-8---8----|

e|-----------------------------------------|
B|-----------------------------------------|
G|-----------------------------------------|
D|------------------------------777777777--|
A|------------------------------777777777--|
E|--1-\3-\5-\7-\8---3-5-3-\8-7--555555555--|

Pre Chorus: (00:47 - 01:03)

e|-----------------------------------------------------------------------|
B|-----------------------------------------------------------------------|
G|-----------------------------------------------------------------------|
D|-----7-7--5-5--3~--7-7--5-5--3~--3333--7-7--5-5--3---7-7--5-5~--333333-|
A|-----7-7--5-5--3~--7-7--5-5--3~--3333--7-7--5-5--3~--7-7--5-5~--333333-|
E|-----5-5--3-3--1~--5-5--3-3--1~--1111--5-5--3-3--1~--5-5--3-3~--111111-|

Strum  d u  d u  d   d u  d u  d   dudu  d u  d u d    d u  d u   dududu

Chorus: (01:04 - 01:32)

Listen for how many times to strum.

e|--------------------------------|      e|--------------------------------|
B|--111111------------------------|      B|--111111------------------------|
G|--222222--555555555555--444444--| (3x) G|--222222--333333333333----------| 
D|--222222--555555555555--555555--|      D|--222222--333333333333--555555--|
A|----------333333033333--333333--|      A|----------111111111111--555555--|
E|--------------------------------|      E|------------------------333333--|

[Play (Intro/ Verse)]

[Play (Pre Chorus)]

[Play (chorus)]

Bridge: (03:05 - 03:35)


e|-----------------------------|
B|-----------------------------|
G|-----9~------------9~--------|
D|--7~-9~-3~-5~---7~-9~-3~-5~--|
A|--7~-7~-3~-5~---7~-7~-3~-5~--|
E|--5~----1~-3~---5~----1~-3~--|

Solo: (03:36 - 4:33)

e|-----------------------------------------------------------|
B|-----------------------------------------------------------|
G|-----------------------------------------------------------|
D|-----------------------------------------------------------|
A|--14-14-14b(16)-14-14-14b(16)-14-14-14b(16)-14-14-14b(16)--|
E|-----------------------------------------------------------|

e|----------------------------------------------------------|
B|----------------------------------------------------------|
G|----------------------------------------------------------| (2x)
D|---9p7-9p7-9--12p11-12p11-12--14p12-14p12-16p14-16p14-16--|
A|----------------------------------------------------------|
E|----------------------------------------------------------|
                                                         ^ dont play that note
                                                           second time around.
e|------------------------------------------------------|
B|------------------------------------------------------| 
G|------------------------------------------------------| (2x)
D|----------------9p7-9p7-9--11p9-11p9--12p11-12p11-12--|
A|--10p9-10p9-10----------------------------------------|
E|------------------------------------------------------|
                                                     ^ dont play that note
                                                       second time around.

e|----------------------------------------------------------|
B|----------------------------------------------------------|
G|----------------------------------------------------------| (2x)
D|---9p7-9p7-9--12p11-12p11-12--14p12-14p12-16p14-16p14-16--|
A|----------------------------------------------------------|
E|----------------------------------------------------------|
                                                         ^ dont play that note
                                                           second time around.
e|------------------------------------------------------|
B|------------------------------------------------------| 
G|------------------------------------------------------| (2x)
D|----------------9p7-9p7-9--11p9-11p9--12p11-12p11-12--|
A|--10p9-10p9-10----------------------------------------|
E|------------------------------------------------------|
                                                     ^ dont play that note
                                                       second time around.

e|---------------------------------------------------------------|
B|---------------------------------------------------------------| 
G|---------------------------------------------------------------| (2x)
D|---------------------------------------------------------------|
A|--12p11-12p11-12--14p12-14p12-14--16p14-16p14--17p16-17p16-17--|
E|---------------------------------------------------------------|
                                                              ^ dont play that note
                                                                second time around.
e|----------------------------------------------------------|
B|----------------------------------------------------------|
G|----------------------------------------------------------| (2x)
D|---9p7-9p7-9--12p11-12p11-12--14p12-14p12-16p14-16p14-16--|
A|----------------------------------------------------------|
E|----------------------------------------------------------|
                                                         ^ dont play that note
                                                           second time around.

e|-----------------------------------------------------------|
B|-----------------------------------------------------------|
G|-----------------------------------------------------------|
D|-----------------------------------------------------------|
A|--14-14-14b(16)-14-14-14b(16)-14-14-14b(16)-14-14-14b(16)--|
E|-----------------------------------------------------------|

[Play (Pre Chorus)]

[Play (chorus)]

The solo isn't hard at all its just really long. If you have any question just leave a comment. 

Enjoy!

| /  slide up
| \  slide down
| h  hammer-on
| p  pull-off
| ~  vibrato
| +  harmonic
| x  Mute note
===============================================================================
            
Submit corrections


        Sort Of lessons Hard to play? Try these video lessons and learn fast Sort Of lessons
        
↑ Back to top | Tablatures and chords for acoustic guitar and electric guitar, ukulele, drums are parodies/interpretations of the original songs. You may use it for private study, scholarship, research or language learning purposes only