» » »

Silversun Pickups - Kissing Families Tabs

Artists:  A B C D E F G H I J K L M N O P Q R S T U V W X Y Z # 

Kissing Families Tabs

(ver. 3) Click to play this song!
Silversun Pickups
 Rating:
4/5 (15 votes)

 Kissing Families lessons Tabs too difficult? Try these video lessons and learn fast
 
                This song is in standard tuning,
e,B,G,D,A,E


(Intro)
e|--------------------------------------------|
B|--------------------------------------------|
G|--------------------------------------------|
D|--66666666--44444444------------------------|
A|--44444444--22222222--2222--777777777777----|
E|----------------------0000--555555555555----|      (x3)
   Stop the seasons…        … so what?
e|----------------------------|
B|----------------------------|
G|----------------------------|
D|--6666--4444----------------|
A|--4444--2222--2222--7777----|
E|--------------0000--5555----|        (x2)

e|------------------------------|
B|------------------------------|
G|------------------------------|
D|--6666--4444---9999-----------|
A|--4444--2222---7777--7777-----|
E|---------------------5555-----|        (x1)

e|----------------------------|
B|----------------------------|
G|----------------------------|
D|--6666--4444----------------|
A|--4444--2222--2222--7777----|
E|--------------0000--5555----|       (x1)

e|-4--4-----4-----4------|
B|-5----5-----5-----5----|
G|-6------6-----6-----6--|
D|-6---------------------|
A|-4---------------------|
E|-----------------------|   (1x)
 Soon you’ll be there too.
e|--------------------------------------------|
B|--------------------------------------------|
G|---------------------------b--9999----------|
D|--/66666666--/44444444--44-4--7777--9999----|
A|--/44444444--/66666666--66-6--------7777----|
E|--------------------------------------------|   (1x)

e|------------------------------------------|
B|------------------------------------------|
G|---------------------------b--99999999----|
D|--/66666666--/44444444--44-4--77777777----|
A|--/44444444--/66666666--66-6--------------|
E|------------------------------------------|   (1x)

e|--------------------------------------------|
B|--------------------------------------------|
G|--------------------------------------------|
D|--66666666--44444444--9999------------------|
A|--44444444--22222222--7777--777777777777----|
E|----------------------------555555555555----|  (1x)
   kissing families can recall
e|--------------------------------------------|
B|--------------------------------------------|
G|--------------------------------------------|
D|--66666666--44444444------------------------|
A|--44444444--22222222--2222--777777777777----|
E|----------------------0000--555555555555----|    (1x)
 we're program to realize all
e|--------------------------------------------|
B|--------------------------------------------|
G|--------------------------------------------|
D|--66666666--44444444--9999------------------|
A|--44444444--22222222--7777--777777777777----|
E|----------------------------555555555555----|  (1x)
 forgotten prison it's been safe 'til now
e|--------------------------|
B|--------------------------|
G|--------------------------|
D|--6666--4444--------------|
A|--4444--2222--22222222----|
E|--------------00000000----|   (1x)
 it's no wonder that we did it this way
e|----------------------------|
B|----------------------------|
G|----------------------------|
D|--6666--4444----------------|
A|--4444--2222--2222--7777----|
E|--------------0000--5555----|   (1x)
 keep looking forward on paths sideways
e|--------------------------|
B|--------------------------|
G|--------------------------|
D|--6666--4444--------------|
A|--4444--2222--22222222----|
E|--------------00000000----|   (3x)
 It’s everything that… …Roll along

e|----------------------------|
B|----------------------------|
G|----------------------------|
D|--6666--4444----------------|
A|--4444--2222--2222--7777----|
E|--------------0000--5555----|  (1x)
 Not today
e|--------------------------|
B|--------------------------|
G|--------------------------|
D|--6666--4444--------------|
A|--4444--2222--22222222----|
E|--------------00000000----|   (1x)
 it's everything that is connected and beautiful
e|----------------------------------------|
B|----------------------------------------|
G|----------------------------------------|
D|--6666--4444----------------------------|
A|--4444--2222--2222--7777777777777777----|
E|--------------0000--5555555555555555----|        (1x)
   And now I know… …your heart is too close
e|--------------------------------------------|
B|--------------------------------------------|
G|--------------------------------------------|
D|--66666666--44444444------------------------|
A|--44444444--22222222--2222--777777777777----|
E|----------------------0000--555555555555----|    (1x)

e|----------------------------------|
B|----------------------------------|
G|----------------------------------|
D|--66666666--44444444--------------|
A|--44444444--22222222--2222--7~----|
E|----------------------0000--5~----|    (1x)

(solo)
I haven’t really figured it out, but just add a ton of distortion and play something like:

e|---------------------------------------------------|
B|---------------------------------------------------|
G|---------------------------------------------------|
D|---------------------------------------------------|
A|--16-16-16-16-14-14-14-14--------------------------|
E|--------------------------12-12-12-12-12-12-12-12--| (x4)

e|--------------------------------------------------------|
B|---------------------------------------16h17-16h17-16h17|
G|--------------------------------------------------------|
D|-18-18p16h18-18-18-18p16h18-18-18-18-18-----------------|
A|--------------------------------------------------------|
E|--------------------------------------------------------|

^This isn’t completely right, it will just help you improvise the solo.

e|--------------------------------------------|
B|--------------------------------------------|
G|---------------------------b--9999----------|
D|--/66666666--/44444444--44-4--7777--9999----|
A|--/44444444--/66666666--66-6--------7777----|
E|--------------------------------------------|   (1x)

e|------------------------------------------|
B|------------------------------------------|
G|---------------------------b--99999999----|
D|--/66666666--/44444444--44-4--77777777----|
A|--/44444444--/66666666--66-6--------------|
E|------------------------------------------|   (1x)

e|----------------------------|
B|----------------------------|
G|----------------------------|
D|--6666--4444----------------|
A|--4444--2222--22222222------|
E|--------------00000000------|   (1x)
 well someone said I made a mistake
e|----------------------------|
B|----------------------------|
G|----------------------------|
D|--6666--4444----------------|
A|--4444--2222--2222--7777----|
E|--------------0000--5555----|   (1x)
 kept looking forward on paths sideways
e|----------------------------|
B|----------------------------|
G|----------------------------|
D|--6666--4444----------------|
A|--4444--2222--22222222------|
E|--------------00000000------|   (2x)
 It’s everything that is… …now I know just where I stand
e|------------------------------|
B|------------------------------|
G|------------------------------|
D|--6666--4444--99999999--------|
A|--4444--2222--77777777--------|
E|------------------------------|   (x1)
 seasons always shift too late
e|----------------------------|
B|----------------------------|
G|----------------------------|
D|--6666--4444----------------|
A|--4444--2222--22222222------|
E|--------------00000000------|    (1x)
 spent too much time now on paths sideways
e|----------------------------|
B|----------------------------|   *Play with distortion for
G|----------------------------|    the first and second one
D|--6666--4444----------------|    then go to clean for the
A|--4444--2222--2222--7777----|    third and fourth*
E|--------------0000--5555----|   (4x)
 Everything that is… …thank god it’s over.
e|------------------------------|
B|------------------------------|
G|------------------------------|
D|--6666--4444---9999-----------|
A|--4444--2222---7777--7777-----|
E|---------------------5555-----|   (x1)

e|----------------------------|
B|----------------------------|
G|----------------------------|
D|--6666--4444----------------|
A|--4444--2222--2222--7777----|
E|--------------0000--5555----|  (1x)

e|-----|
B|-----|
G|-----|
D|--6--|
A|--4--|
E|-----|  End…

This is my first tab, so if you have any comments, or revisions, just send me an email 
            
Submit corrections


        Kissing Families lessons Hard to play? Try these video lessons and learn fast Kissing Families lessons
        
↑ Back to top | Tablatures and chords for acoustic guitar and electric guitar, ukulele, drums are parodies/interpretations of the original songs. You may use it for private study, scholarship, research or language learning purposes only