» » »

Silversun Pickups - Kissing Families Tabs

Artists:  A B C D E F G H I J K L M N O P Q R S T U V W X Y Z # 

Kissing Families Tabs

(ver. 1) Click to play this song!
Silversun Pickups
 Rating:
4/5 (7 votes)

 Kissing Families lessons Tabs too difficult? Try these video lessons and learn fast
 
                -------------------------------------------------------------------------------
-------------------------------------------------------------------------------

Tuning: Standard

Rhythms aren't always exact, as they're easy to figure out yourself.

e|---------------------------------------------------------------------------|
B|---------------------------------------------------------------------------|
G|--6-6-6-6-6-6-6-6--4-4-4-4-4-4-4-4-----------2-2-2-2-2---2-2---------------|
D|--6-6-6-6-6-6-6-6--4-4-4-4-4-4-4-4--2-2-2-2--2-2-2-2-2h4-2-2h4/6-----------|
A|--4-4-4-4-4-4-4-4--2-2-2-2-2-2-2-2--2-2-2-2--0-0-0-0-0---0-0---------------|
E|------------------------------------0-0-0-0--------------------------------|

e|---------------------------------------------------------------------------|
B|---------------------------------------------------------------------------|
G|--6-6-6-6-6-6-6-6--4-4-4-4-4-4-4-4-----------2-2-2-2-2---2-2---------------|
D|--6-6-6-6-6-6-6-6--4-4-4-4-4-4-4-4--2-2-2-2--2-2-2-2-2h4-2-2h4/6^----------|
A|--4-4-4-4-4-4-4-4--2-2-2-2-2-2-2-2--2-2-2-2--0-0-0-0-0---0-0---------------|
E|------------------------------------0-0-0-0--------------------------------|

e|---------------------------------------------------------------------------|
B|---------------------------------------------------------------------------|
G|--6-6-6-6-6-6-6-6--4-4-4-4-4-4-4-4-----------2-2-2-2-2---2-2---------------|
D|--6-6-6-6-6-6-6-6--4-4-4-4-4-4-4-4--2-2-2-2--2-2-2-2-2h4-2-2h4/6^----------|
A|--4-4-4-4-4-4-4-4--2-2-2-2-2-2-2-2--2-2-2-2--0-0-0-0-0---0-0---------------|
E|------------------------------------0-0-0-0--------------------------------|

e|---------------------------------------------------------------------------|
B|---------------------------------------------------------------------------|
G|--6-6-6-6--4-4-4-4-----------2-2-2-2---2-2---------------------------------|
D|--6-6-6-6--4-4-4-4--2-2-2-2--2-2-2-2h4-2-2h4/6-----------------------------|
A|--4-4-4-4--2-2-2-2--2-2-2-2--0-0-0-0---0-0---------------------------------|
E|--------------------0-0-0-0------------------------------------------------|
  repeat four times, but on third time:

e|---------------------------------------------------------------------------|
B|---------------------------------------------------------------------------|
G|--6-6-6-6--4-4-4-4---9-9-9-9-----2-2-2-2---2-2-----------------------------|
D|--6-6-6-6--4-4-4-4---9-9-9-9-----2-2-2-2h4-2-2h4/6-------------------------|
A|--4-4-4-4--2-2-2-2---7-7-7-7-----0-0-0-0---0-0-----------------------------|
E|---------------------------------------------------------------------------|

  after fourth time..
e|---4-----------------------------------------------------------------------|
B|---5-----------------------------------------------------------------------|
G|---6-----------------------------------------------------------------------|
D|---6-----------------------------------------------------------------------|
A|---4-----------------------------------------------------------------------|
E|---------------------------------------------------------------------------|

  soon you'll be there too..
e|---------------------------------------------------------------------------|
B|---------------------------------------------------------------------------|
G|---16-16--14-14-14-----/6-6-6-6-6-6-6-6-6/8-8-8-8-8-8-8-8rb---16-16--14-14-|
D|---14-14--14-14-14-----/7-7-7-7-7-7-7-7-7/9-9-9-9-9-9-9-9rb---14-14--14-14-|
A|---------------------------------------------------------------------------|
E|---------------------------------------------------------------------------|

  solo
e|---------------------------------------------------------------------------|
B|---------------------------------------------------------------------------|
G|---------------------------------------------------------------------------|
D|--11~--9h11~-9~------------11--9h11--9-------------------------------------|
A|-----------------11rb/7-----------------11rb/7--7h9--7---------------------|
E|---------------------------------------------------------9-----------------|

e|---------------------------------------------------------------------------|
B|---------------------------------------------------------------------------|
G|---------------------------------------------------------------------------|
D|--11---9h11--9-------------11--9h11--9-------------------------------------|
A|-----------------11rb/7-----------------11rb/7---7h9--7--------------------|
E|---------------------------------------------------------------------------|

e|---------------------------------------------------------------------------|
B|--------------------------------16^----------------------------------------|
G|--/11--13--11h13-11--11rb-9-/13--------13-11h13-11--11--11rb--9------------|
D|---------------------------------------------------------------------------|
A|---------------------------------------------------------------------------|
E|---------------------------------------------------------------------------|
  Crazy oscillator solo, I don't have the resources to figure that one out.
  
  There's a slight variation on the main riff after the solo, but you should be
  able to figure it out.


| /  slide up
| \  slide down
| h  hammer-on
| p  pull-off
| ~  vibrato
| +  harmonic
| x  Mute note
===============================================================================
            
Submit corrections


        Kissing Families lessons Hard to play? Try these video lessons and learn fast Kissing Families lessons
        
↑ Back to top | Tablatures and chords for acoustic guitar and electric guitar, ukulele, drums are parodies/interpretations of the original songs. You may use it for private study, scholarship, research or language learning purposes only