» » »

Silversun Pickups - Booksmart Devil Tabs

Artists:  A B C D E F G H I J K L M N O P Q R S T U V W X Y Z # 

Booksmart Devil Tabs

(ver. 3) Click to play this song!
Silversun Pickups
 Rating:
4/5 (4 votes)

 Booksmart Devil lessons Tabs too difficult? Try these video lessons and learn fast
 
                -----------------------------------------------------------------------------
                             Booksmart Devil - Silversun Pickups
-----------------------------------------------------------------------------

Tuning: E A D G B e

Note: There's a lot of delay effect ghost notes and whatnot throughout the
whole song, particularly the beginning, but I'm only roughly transcribing
the main riffs. So...figure it out, bub.

Main riff
e|--------------------------------------------------------------------|
B|--------------------------------------------------------------------|
G|--------------------------------------------------------------------|
D|----6-6--9b10r9---------9b10r9--------------------------------------|
A|----4-4--7b8r7-----7-7--7b8r7---------------------------------------|
E|-------------------5-5----------------------------------------------|

e|--------------------------------------------------------------------|
B|--------------------------------------------------------------------|
G|----------------------------------1-1-------------------------------|
D|----6-6--9b10r9----9s14--14-14s9--2-2-------------------------------|
A|----4-4--7b8r7-----7s12--12-12s7--2-2-------------------------------|
E|----------------------------------0-0-------------------------------| x2

Clean part (Sobering...)
       C#m                              E   
e|------4-----4-----4--4--------5--------0-----0-----0---0-----0------|
B|--------5-----5--------5--------5--------0-----0---------0-----0----|
G|----6-----6-----6--------6--6-----6--1-----1-----1---------1-----1--|
D|--------------------------------------------------------------------|
A|--------------------------------------------------------------------|
E|--------------------------------------------------------------------|

Mini-Solo
e|--------------------------------------------------------------------|
B|--------------------------------------------------------------------|
G|--------------------------------------------------------------------|
D|--------------------------------------------------------------------|
A|----4-4--7~----7s9h11b12r11----4-4--7b8r7---------7~---7b8r7--------|
E|---------------------------------------------5-5-----5--------------| x2

Bridge riff
e|--------------------------------------------------------------------|
B|--------------------------------------------------------------------|
G|--6-6--4---------2-2------------------------------------------------|
D|--6-6--4--2----2-2-2----------2-------------------------------------|
A|--4-4--2--2----2-0-0----------2-------------------------------------|
E|----------0----0-------4b5r4--0-------------------------------------| x4

Repeat clean part with distortion (C#m E) x2

Repeat main riff x2

And that's pretty much it...

************************************

| /   slide up
| \   slide down
| h   hammer-on
| p   pull-off
| ~   vibrato
| +   harmonic
| x   Mute note
| b   Bend
| pb  Pre-bend
| br  Bend release
| pbr Pre-bend release
| brb Bend release bend

************************************

Lyrics:
=======
So believe
So believe
In streetwise angel

So believe
So believe
In booksmart devil

So retreat
So retreat
With anchored armor

Sobering
Sobering

So believe
So believe
In streetwise angel
In booksmart devil

Sobering
Sobering
Sobering
Sobering
            
Submit corrections


        Booksmart Devil lessons Hard to play? Try these video lessons and learn fast Booksmart Devil lessons
        
↑ Back to top | Tablatures and chords for acoustic guitar and electric guitar, ukulele, drums are parodies/interpretations of the original songs. You may use it for private study, scholarship, research or language learning purposes only