» » »

Silversun Pickups - Booksmart Devil Tabs

Artists:  A B C D E F G H I J K L M N O P Q R S T U V W X Y Z # 

Booksmart Devil Tabs

(ver. 2) Click to play this song!
Silversun Pickups
 Rating:
4/5 (6 votes)

 Booksmart Devil lessons Tabs too difficult? Try these video lessons and learn fast
 
                Tuning: EADGBE

Main Guitar Riff:
                        2x          Last 1/2 of first part 2nd time
e|------------------------|-------------------------|
B|------------------------|-------------------------|
G|------------------------|------5-5----------------|
D|---5-5---8^---------8^--|------6-6--8-8-88--------|
A|---3-3---6^---6-6---6^--|--6-6-6-6--6-6-66--------|
E|--------------4-4-------|--4-4-4-4----------------|


Clean Guitar Riff

e|-----4-----4-----4----------5-----0---0---0-0------0-------|
B|-------5-----5------5---------5-----0---0-----0--0-0-------|
G|---5-----5-----5-------5--5-----5--------------------------|
D|-----------------------------------------------------------|
A|-----------------------------------------------------------|
E|-----------------------------------------------------------|


Solo
                                                 2x
e|--------------------------------------------------|
B|--------------------------------------------------|
G|--------------------------------------------------|
D|--------------------------------------------------|
A|--3-3-6^--10-10-10--3-3-6^------6---6^------------|
E|----------------------------4-4---4---------------|
            
Submit corrections


        Booksmart Devil lessons Hard to play? Try these video lessons and learn fast Booksmart Devil lessons
        
↑ Back to top | Tablatures and chords for acoustic guitar and electric guitar, ukulele, drums are parodies/interpretations of the original songs. You may use it for private study, scholarship, research or language learning purposes only