» » »

Showbread - Missing Wife Tabs

Artists:  A B C D E F G H I J K L M N O P Q R S T U V W X Y Z # 

Missing Wife Tabs

(ver. 3) Click to play this song!
Showbread
 Rating:
4/5 (6 votes)


 Missing Wife lessons Tabs too difficult? Try these video lessons and learn fast
 
                Tuning Standard: Eadgbe

Intro/Verse/Chorus

e|--2-----2---------------0-0-0-0---------------|
b|--3-----2-----0-----2---3-5-3-2---------------|
g|--2-----2-----0-----2-------------------------|
d|--------------2-----2-------------------------|
a|--------------2-----0-------------------------|
E|----------------------------------------------|

Ending verse
e|--2--2--2--2----2--2--2--2----7--7--7--7------|
b|---3--3--3--3----3--3--3--3----8--8--8--8-----|
g|--2--2--2--2------------------------7--7------|
d|----------------4--4--4--4----9--9------------|
a|----------------------------------------------|
E|----------------------------------------------|

e|--5--5--5--5----------------------------------|
b|---5--5--5--5---------------------------------|
g|--6--6--6--6----------------------------------|
d|----------------------------------------------|
a|----------------------------------------------|
E|----------------------------------------------|
            
Submit corrections



        Missing Wife lessons Hard to play? Try these video lessons and learn fast Missing Wife lessons
        
↑ Back to top | Tablatures and chords for acoustic guitar and electric guitar, ukulele, drums are parodies/interpretations of the original songs. You may use it for private study, scholarship, research or language learning purposes only