» » »

Shannon Noll - Shine Tabs

Artists:  A B C D E F G H I J K L M N O P Q R S T U V W X Y Z # 

Shine Tabs

(ver. 1) Click to play this song!
Shannon Noll
 Rating:
3.8/5 (5 votes)


 Shine lessons Tabs too difficult? Try these video lessons and learn fast
 
                ----------------------------------------------------------------------------
                             SHINE - Shannon Noll
----------------------------------------------------------------------------


Tuning:

e|--------------------------------------------------------------------------|
B|-------------------------------------------------------------4----6---7---|
G|-------------------------------------------------3---4---6----------------|
D|----------------------1----3----4----------6------------------------------|
A|--------1---2----4--------------------------------------------------------|
E|--2--4--------------------------------------------------------------------|

e|--------------------------------------------------------------------------|
B|-------------------------------------------------------------4----6---7---|
G|-------------------------------------------------3---4---6----------------|
D|----------------------1----3----4----------6------------------------------|
A|--------1---2----4--------------------------------------------------------|
E|--2--4--------------------------------------------------------------------|

| /  slide up
|   slide down
| h  hammer-on
| p  pull-off
| ~  vibrato
| +  harmonic
| x  Mute note
===============================================================================
            
Submit corrections



        Shine lessons Hard to play? Try these video lessons and learn fast Shine lessons
        
↑ Back to top | Tablatures and chords for acoustic guitar and electric guitar, ukulele, drums are parodies/interpretations of the original songs. You may use it for private study, scholarship, research or language learning purposes only