Home » S » Shania Twain »

Shania Twain - You're Still The One Tabs

Artists:  A B C D E F G H I J K L M N O P Q R S T U V W X Y Z # 

You're Still The One Tabs

(ver. 1) Click to play this song!
Shania Twain
 Rating:
4/5 (4 votes)
                


You’re Still the One- SHANIA TWAIN


I really love this song and tabbed it using my acoustic guitar.
And this is for those who are in real love… plz! don’t forget to give me your corrections….

Listen to the song for perfect timing.

e|--------------------------------------------------|
B|--------------------------------------------------|
G|--------------------------------------------------|
D|--6-8-8/10-8--------------------------------------|
A|--------------------------------------------------|
E|--------------------------------------------------|
(When I first saw You, I saw love

e|--------------------------------------------------|
B|--------------------------------------------------|
G|--------------------------------------------------|
D|-8-10/13-10-8-------------------------------------|
A|--------------------------------------------------|
E|--------------------------------------------------|
  And the first time you touched me, I felt love 

e|--------------------------------------------------|
B|--------------------------------------------------|
G|--------------------------------------------------|
D|-8-10/13--12--------------------------------------|
A|--------------------------------------------------|
E|--------------------------------------------------|
   And after all this time
e|--------------------------------------------------|
B|--------------------------------------------------|
G|--------------------------------------15----------|
D|------15--13-12-12-13--15--13----12-13--13--15-13-|
A|-------------------------------13-----------------|
E|--------------------------------------------------|
     you’re still the one I love

Play the remaining song using: Eb, Ab, Bb, G & Fm
 

(When I first saw You, I saw love.
And the first time you touched me, I felt love.
And after all this time, you’re still the one I love)


Uuhhh Yeeah…..
Eb                G
Looks like we made it
Ab                  Bb
Look how far we’ve come my baby
We mighta took a long way
We knew we’d get there someday

Bridge:
Eb          G     Ab           Bb
They said,”I bet they’ll never make it”
         Eb        Ab       Bb
But just look at us holding on
We’re still together still going strong

Chorus:           Eb
(You’re still the one)
                        Ab
You’re still the one I run to
Fm                 Bb
The one that I belong to
You’re still the one I want for life
(You’re still the one)
You’re still the one that I love
The only one I dream of 
You’re still the one I kiss good night
Ain’t nothin’ better
We beat the odds together
I’m glad we didn’t listen
Look at what we would be missin’

(Bridge)
(Chorus)
Eb              G
I’m so glad we made it
Ab                   Bb
Look how far we’ve come my baby
            
Submit corrections

↑ Back to top | Tablatures and chords for acoustic guitar and electric guitar, ukulele, drums are parodies/interpretations of the original songs. You may use it for private study, scholarship, research or language learning purposes only