Home » S » Sex Bob-omb »

Sex Bob-omb - Garbage Truck Bass

Artists:  A B C D E F G H I J K L M N O P Q R S T U V W X Y Z # 

Garbage Truck Bass

(ver. 2) Click to play this song!
Sex Bob-omb
im not saying this is the correct way to play this song......i just like the way 
it sounds so heres my version of this song hope you enjoy 


      Wooh!             Ah-Ha-ha
G|-----------------|-----------------|-----------------|-----------------|
D|-----------------|-----------------|-----------------|-----------------|
A|---------5-5-5---|-------2-0h2-2---|--------5-5-5----|-------2-0h2-2---|
E|--0--0-----------|--3--3-----------|--0--0-----------|--3--3-----------|

      I'll take you for a ride           On my garbage truck  
G|-----------------|-----------------|-----------------|-----------------|
D|-----------------|-----------------|-----------------|-----------------|
A|---------5-5-5---|------2-0h2-2----|--------5-5-5----|------2-0h2-2----|
E|--0--0-----------|--3--3-----------|--0--0-----------|--3--3-----------|

                       Oh no             I'll take you to the dump
G|------------------|------------------|-----------------|-----------------|
D|------------------|------------------|-----------------|-----------------|
A|---2---2---2---2--|---0---0---0---0-5|--------5-5-5----|------2-0h2-2----|
E|------------------|------------------|--0--0-----------|--3--3-----------|

    Cuz' you're my queen                    I'll take you uptown
G|-----------------|-----------------|-----------------|------------------|
D|-----------------|-----------------|-----------------|------------------|
A|---------5--5----|---------2--2----|--0---0---0---0--|--3---3---3---3---|
E|--0--0-----------|--3--3-----------|-----------------|------------------|

  I'll show you the sights, you know you wanna ride                 On my
G|------------------|-----------------|-----------------|-----------------|
D|------------------|-----------------|-----------------|-----------------|
A|--0---0---0---0---|---3--3--3--3-5--|--------5-5-5----|-------2-0h-2-2--|
E|------------------|-----------------|--0--0-----------|--3--3-----------|

 garbage truck      Truck, truck, truck     We'll pass the mansions by
G|-----------------|------------------|-----------------|------------------|
D|-----------------|------------------|-----------------|------------------|
A|---------5-5-5---|----------2-0h2-2-|--0---0---0---0--|--3---3---3---3---|
E|--0--0-----------|---3--3-----------|-----------------|------------------|

   Drive right through, the needles eye. Oh my        
G|------------------|-----------------|----------------|----------------|
D|------------------|-----------------|----------------|----------------|
A|--0---0---0---0---|---3---3---3---5-|--------5-5-5---|--------2-0h2-2-|
E|------------------|-----------------|--0--0----------|--3--3----------|
 
         My, my, my, my                           I got a stereo 
G|-----------------|-----------------|-----------------|------------------|
D|-----------------|-----------------|-----------------|------------------|
A|---------5-5-5---|--------2-0h2-2--|--0---0---0---0--|--3---3---3---3---|
E|--0--0-----------|--3--3-----------|-----------------|------------------|

 You just got to turn the knob, and baby we'll go *Bass Solo*
G|------------------|-----------------|-----------------|-----------------|
D|------------------|-----------------|-----------------|-----------------|
A|---0---0---0---0--|--3---3---3---3--|---------5-5-5---|--------2-0h2-2--|
E|------------------|-----------------|--0--0-----------|--3--3-----------|

 As far as we can         I'll be your garbage man          I'll take out
G|-----------------|-----------------|-----------------|-----------------|
D|-----------------|-----------------|-----------------|-----------------|
A|---------5-5-5---|--------2-0h2-2--|---------5-5-5---|------2-0h2-2----|
E|--0--0-----------|--3--3-----------|--0--0-----------|--3--3-----------|

 your junk    And I'll crush  it down     Jesus in my rear view
G|-----------------|-----------------|-----------------|------------------|
D|-----------------|-----------------|-----------------|------------------|
A|---------5-5-5---|--------2-0h2-2--|--0---0---0---0--|--3---3---3---3---|
E|--0--0-----------|--3--3-----------|-----------------|------------------|

 And the highway patrol                *Bass Solo*       
G|------------------|-----------------|-----------------|-----------------|
D|------------------|-----------------|-----------------|-----------------|
A|---0---0---0---0--|--3---3---3---5--|---------5-5-5---|--------2-0h2-2--|
E|------------------|-----------------|--0--0-----------|--3--3-----------|

   In my garbage truck                   I'll never throw you away
G|-----------------|-----------------|-----------------|-----------------|
D|-----------------|-----------------|-----------------|-----------------|
A|--------5-5-5----|--------2-0h2-2--|--------5-5-5----|-------2-0h2-2---|
E|--0--0-----------|--3--3-----------|--0--0-----------|--3--3-----------|

        When you're old and gray              You'll just roll away
G|-----------------|-----------------|-----------------|-----------------|
D|-----------------|-----------------|-----------------|-----------------|
A|--------5-5-5----|--------2-2-2----|--------5-5-5----|--------2-0h2-2--|
E|--0--0-----------|--3--3-----------|--0--0-----------|--3--3-----------|
            
Submit corrections

↑ Back to top | Tablatures and chords for acoustic guitar and electric guitar, ukulele, drums are parodies/interpretations of the original songs. You may use it for private study, scholarship, research or language learning purposes only