» » »

Sentenced - The War Aint Over Bass

Artists:  A B C D E F G H I J K L M N O P Q R S T U V W X Y Z # 

The War Aint Over Bass

(ver. 2) Click to play this song!
Sentenced
 Rating:
4/5 (4 votes)


 The War Aint Over lessons Tabs too difficult? Try these video lessons and learn fast
 
                “The War Ain’t Over” - Sentenced

F#||-----------------------------------|------------------------------|
C#||-----------------------------------|------------------------------|
G#||-----------------------------------|------------------------------|
D#||--0--------------------------------|------------------------------|

-----------------------------------|--------------------|--7----------|
-----------------------------------|---------------5/---|---------7---|
--3--------------------------------|--5-----------------|-------------|
-----------------------------------|--------------------|-----------1/|

------------------------------|----------------------------------|
------------------------------|----------------------------------|
------------------------------|----------------------------------|
--5---------------------------|--0---------------------0-0-0--0--|

-----------------------------------|----------------------------------|
-----------------------------------|----------------------------------|
-----------------------------------|----------------------------------|
--0--------------------------------|------5--5------------------------|

Intro Part 2
---------------------------------------------------|
---------------------------------------------------|
-----------------------------7----5--3----2--------|
--0--0-0-0-0-0----0-0-0--0-0-----------------5--3--|

--------------------------------------------------------|
--------------------------------------------------------|
--------------------------------------------------------|
--1--1-1-1-1-1----1-1-1--1-1-1--1-1-1-1-1----1-1-1--1-1-|

--------------------------------------------------|
--------------------------------------------------|
-----------------------3-----------------------3--|
--5----3-3-5----3-3-5-----5----3-3-5----3-3-5-----|

--------------------------------------------|
--------------------------------------------|
--3/-5--5--5--------0-0-3/-5--5--5----------|
--------------------------------------------|

-------------------------------------------------------------|
-------------------------------------------------------------|
-----------------------------7-7-7-7-5-5-5-5-3-3-3-3-2-2-0-0-|
--0--0-0-0-0-0----0-0-0--0-0---------------------------------|

--------------------------------------------------------|
--------------------------------------------------------|
--------------------------------------------------------|
--1--1-1-1-1-1----1-1-1--1-1-1--1-1-1-1-1----1-1-1--1-1-|

--------------------------------------------------------|
--------------------------------------------------------|
--5--5-5-5-5-5----5-5-5--5-5-5--5-5-5-5-5----5-5-5--5-5-|
--------------------------------------------------------|

--------------------------------------------|
--------------------------------------------|
--------------------------------------------|
--3/-5--5--5--------0-0-3/-5--5--5----------|

Verse
-------------------------------|-------------------------------|
-------------------------------|-------------------------------|
--5-5-------5--5-----------5---|--3-3---------3--3-------3-----|
-------------------------------|-------------------------------|

--------------------------------------|-------------------------------|
--------------------------------------|-------------------------------|
--1-1-----------1--1-------1-------1--|--0----------------6-----------|
--------------------------------------|-------------------------------|

Repeat the first 3 bars then go to into this

Pre-Chorus
------------------------------------------------------------|
------------------------------------------------------------|
------------------------------------------------------------|
--0--0-0-0--0-0-0-0-0--0-0-0-0-3--3-3-3--3-3-3-3-3--3-3-3-3-|

-----------------------------------------------------------|
-----------------------------------------------------------|
--0--0-0-0--0-0-0-0-0--0-0-0-0-3--3-3-3--3-3-5--5-5-5--5-5-|
-----------------------------------------------------------| x4

---------------------------------------------------|
---------------------------------------------------|
--0--0--0--0--0-0-0--0--0----0--0--0--0-0-0--0--0--|
---------------------------------------------------|

-------------------------------------------|
-------------------------------------------|
--0--0--0--0--0-0-0--0--0------------------|
-------------------------------------------| x2

Chorus (intro part 2

Verse 2
--------------------------------------|-------------------------------|
--7------------7----------------------|-------------------------------|
--------------------5------------5----|--8------------8----6---------6|
--------------------------------------|-------------------------------|

-------------------------------------|--------------------------------|
-------------------------------------|--------------------------------|
--2----------------2------------2----|--3------------3----5----------5|
-------------------------------------|--------------------------------|

Pre-Chorus

------------------------------------------------------------|
------------------------------------------------------------|
------------------------------------------------------------|
--0--0-0-0--0-0-0-0-0--0-0-0-0-3--3-3-3--3-3-3-3-3--3-3-3-3-|

-----------------------------------------------------------|
-----------------------------------------------------------|
--0--0-0-0--0-0-0-0-0--0-0-0-0-3--3-3-3--3-3-5--5-5-5--5-5-|
-----------------------------------------------------------| x4

---------------------------------------------------|
---------------------------------------------------|
--0--0--0--0--0-0-0--0--0----0--0--0--0-0-0--0--0--|
---------------------------------------------------|
-------------------------------------------|
-------------------------------------------|
--0--0--0--0--0-0-0--0--0------------------|
-------------------------------------------| x2

Chorus x1

Outro
--------------------------------------------------|
--------------------------------------------------|
--3/-5--5--5--5--5--5--5--5--5--5--5--5--5--5--5--|
--------------------------------------------------|

---------------------------------------|------------------------------|
---------------------------------------|------------------------------|
---------------------------------------|------------------------------|
--0--------------------------0-0-0--0--|--0---------------------------|
            
Submit corrections



        The War Aint Over lessons Hard to play? Try these video lessons and learn fast The War Aint Over lessons
        
↑ Back to top | Tablatures and chords for acoustic guitar and electric guitar, ukulele, drums are parodies/interpretations of the original songs. You may use it for private study, scholarship, research or language learning purposes only