» » »

Sentenced - The Rain Comes Falling Down Bass

Artists:  A B C D E F G H I J K L M N O P Q R S T U V W X Y Z # 

The Rain Comes Falling Down Bass

(ver. 1) Click to play this song!
Sentenced
 Rating:
4/5 (4 votes)


 The Rain Comes Falling Down lessons Tabs too difficult? Try these video lessons and learn fast
 
                “The Rain Comes Falling Down” – Sentenced
Tuning: E, A, D, G

Rest during intro

Verse
|---------------0------------------0~-|
|-0--------2-------0--------2---------|
|------1----------------1-------------|
|-------------------------------------|

Oh’s
|---------------------------------------------------------------------------------------|
|-0-0-0-0-0-0-0-0-0-0-0-0-0-0-0-0-0-----------------------------------------------------|
|-------------------------------------3-3-3-3-3-3-3-3-3-3-3-3-3-3-3-3-3-2-2-2-2-2-2-2-2-|
|---------------------------------------------------------------------------------------|

|-------------------------------------------------|
|-------------------------------------------------|
|-2-2-2-2-2-2-2-2-2-1-1-1-1-1-1-1-1-1-1-1-3-3-r-r-|
|-------------------------------------------------|

Verse 2
|-----------------------------------------------0---0-0---|
|-0---0-0-----------------------2---2-2---2---------------|
|----------------1---1-1---1------------------------------|
|-----------1---------------------------------------------| x2

Verse Heavy
|-------------------------------------------------------------------------|
|-0-0-0-0-0-0-0-0---------------------------------------------------------|
|--------------------1-1-1-1-1-1-1-1--------------------------------------|
|---------------------------------------0-0-0-0-0-0-0-0-3-3-3-3-3-3-3-3-3-| x2

Chorus
|-------------------------------------------------------------------|
|-------------------------------------------------------------------|
|-5-5-5-5-5-5-5-5-5-5-5-5-5-5-5-5-3-3-3-3-3-3-3-3-3-3-3-3-3-3-3-3-3-|
|-------------------------------------------------------------------|

|---------------------------------------------------------------------|
|-------------------------------------------------5-3-2---------------|
|-2-2-2-2-2-2-2-2-2-2-2-2-2-2-2-2-1-1-1-1-1-1-1-1---------5-3-1-------|
|----------------------------------------------------------------5-3--| x2 (no run on repeat)

Verse Heavy x2

Verse 2

Verse Heavy x2

Rest
Solo
|----------------0-----2-5-7---10-12-9~------10-10-10-12-14-12-10-12-10-9---------9-|
|-0---2-----3--------------------------------------------------------------10-12----|
|-----------------------------------------------------------------------------------|
|-----------------------------------------------------------------------------------|

|--------------------------------------------------------------------|
|-0-0-0-0-0-0-0-0----------------------------------------------------|
|--------------------3-3-3-3-3-3-3-3-2-2-2-2-2-2-2-2-1-1-1-1-1-1-1-3-|
|--------------------------------------------------------------------| x4

Verse Heavy x2

|-------------------|
|-------------------|
|-------------------|
|-3-3-3-3-3-3-3-3-3-|

Chorus

Chorus 2
|-------------------------------------------------------------------|
|-------------------------------------------------------------------|
|-5-5-5-5-5-5-5-5-5-5-5-5-5-5-5-5-3-3-3-3-3-3-3-3-3-3-3-3-3-3-3-3-3-|
|-------------------------------------------------------------------|

|----------------------------------------------------------------------|
|--------------------------------------------------7-5-3---------------|
|-2-2-2-2-2-2-2-2-2-2-2-2-2-2-2-2-1-1-1-1-1-1-1-1---------7-5-3--------|
|-----------------------------------------------------------------5-3--|

Chorus

Chorus 2 x4

Rest
            
Submit corrections



        The Rain Comes Falling Down lessons Hard to play? Try these video lessons and learn fast The Rain Comes Falling Down lessons
        
↑ Back to top | Tablatures and chords for acoustic guitar and electric guitar, ukulele, drums are parodies/interpretations of the original songs. You may use it for private study, scholarship, research or language learning purposes only