» » »

Senses Fail - Sick Or Sane Fifty For A Twenty Tabs

Artists:  A B C D E F G H I J K L M N O P Q R S T U V W X Y Z # 

Sick Or Sane Fifty For A Twenty Tabs

(ver. 1) Click to play this song!
Senses Fail
 Rating:
4/5 (4 votes)

 Sick Or Sane Fifty For A Twenty lessons Tabs too difficult? Try these video lessons and learn fast
 
                Track Number: 3
Tuning: Drop D
Guitarists:
  - Garrett Zablocki: Gtr. 1 (elec. w/dist.)
  - Heath Saraceno: Gtr. 2 (elec. w/dist.)

Update (12/23/06): Added Some Gtr. 2



Intro:
  Gtr. 1 
e|---------|----------------------|-------------------|
B|---------|----------------------|-------------------|
G|---------|---10--10-10--9--12---|---7--7-7--9-9-9---|
D|---------|----x---x--x--x---x---|---x--x-x--x-x-x---|
A|---------|----8---8--8--7--10---|---5--5-5--7-7-7---|
D|---12\---|----------------------|-------------------|
 |                                                    |
 |Gtr. 2                                              |
e|---------|----------------------|-------------------|
B|---------|----------------------|-------------------|
G|---------|----------------------|---3--3-3--5-5-5---|
D|---------|----0---0--0--3---5---|---3--3-3--5-5-5---|
A|---------|----0---0--0--3---5---|---1--1-1--3-3-3---|
D|---12\---|----0---0--0--3---5---|-------------------|


Gtr.1
e|----------------------|-------------------|-----------------------|
B|----------------------|-------------------|-----------------------|
G|---10--10-10--9--12---|---7--7-7--9-9-9---|---14--14-14--12--15---|
D|----x---x--x--x---x---|---x--x-x--x-x-x---|----x---x--x---x---x---|
A|----8---8--8--7--10---|---5--5-5--7-7-7---|---12--12-12--10--13---|
D|----------------------|-------------------|-----------------------|
 |                                                                  |
 |Gtr. 2                                                            |
e|----------------------|-------------------|-----------------------|
B|----------------------|-------------------|-----------------------|
G|----------------------|---3--3-3--5-5-5---|-----------------------|
D|----0---0--0--3---5---|---3--3-3--5-5-5---|----0---0--0---3---5---|
A|----0---0--0--3---5---|---1--1-1--3-3-3---|----0---0--0---3---5---|
D|----0---0--0--3---5---|-------------------|----0---0--0---3---5---|


Gtr. 1
e|-------------------------|----------------------|-------------------|
B|-------------------------|----------------------|-------------------|
G|---10--10-10--12-12-10---|---10--10-10--9--12---|---7--7-7--9-9-9---|
D|----x---x--x---x--x--x---|----x---x--x--x---x---|---x--x-x--x-x-x---|
A|----8---8--8--10-10--8---|----8---8--8--7--10---|---5--5-5--7-7-7---|
D|-------------------------|----------------------|-------------------|
 |                                                                    |
 |Gtr. 2                                                              |
e|-------------------------|----------------------|-------------------|
B|-------------------------|----------------------|-------------------|
G|----3---3--3---5--5--5---|----------------------|---3--3-3--5-5-5---|
D|----3---3--3---5--5--5---|----0---0--0--3---5---|---3--3-3--5-5-5---|
A|----1---1--1---3--3--3---|----0---0--0--3---5---|---1--1-1--3-3-3---|
D|-------------------------|----0---0--0--3---5---|-------------------|



Verse: 
Gtr. 1                          PM--|     PM-----|
e|---------|----------------|-------------------------------|
B|---------|----------------|-------------------------------|
G|---10\---|---10\9/10------|-------------------------------|
D|----x----|----x-x--x--0---|---------8-8-----------10-10---|
A|----8----|----8\7/-8--0---|---8-8-8-8-8--10-10-10-10-10---|
D|---------|------------0---|---8-8-8-8-8--10-10-10-10-10---|
 |                                                          |
 |Gtr. 2                        PM--|     PM-----|          |
e|---------|----------------|-------------------------------|
B|---------|----------------|-------------------------------|
G|---------|---10\9/10------|-------------------------------|
D|----0----|----x-x--x--0---|---------8-8-----------10-10---|
A|----0----|----8\7/-8--0---|---8-8-8-8-8--10-10-10-10-10---|
D|----0----|------------0---|---8-8-8-8-8--10-10-10-10-10---|



Gtr. 1, 2                                   *
e|-------|----------------|-------------|---------------------------------|
B|-------|----------------|-------------|---------------------------------|
G|-------|---10/9\10------|-------------|---------------------------------|
D|---0---|----x-x--x--0---|-------------|---------------10\-----3---------|
A|---0---|----8/7\-8--0---|---0--0--0---|---8-8-8-8-8---10\-----3---------|
D|---0---|------------0---|---0--0--0---|---8-8-8-8-8---10\-----3---------|
PM                            .  .  .       . . . . .


Pre-Chorus:
e|-----------------------------------------------------------|
B|-----------------------------------------------------------|
G|--------10------------10------------10---------------------|
D|---------x-------------x-------------x---------------------|
A|---0--0--8--0-0-0--0---8--0-0-0--0---8---8-8-8--10-10-10---|
D|---0--0-----0-0-0--0------0-0-0--0-------8-8-8--10-10-10---|
PM   .  .     . . .  .      . . .  .       . . .   .  .  .

e|-----------------------------------------------------------------|
B|-----------------------------------------------------------------|
G|--------10------------10-----------------------------------------|
D|---------x-------------x-----------------------------------------|
A|---0--0--8--0-0-0--0---8--8-8-8--8--8--10-10-10-10-10-10-10-10---|
D|---0--0-----0-0-0--0------8-8-8--8--8--10-10-10-10-10-10-10-10---|
PM   .  .     . . .  .      . . .  .  .   .  .  .  .  .  .  .  .

e|-----------------------------------------------------------|
B|-----------------------------------------------------------|
G|--------10------------10------------10---------------------|
D|---------x-------------x-------------x---------------------|
A|---0--0--8--0-0-0--0---8--0-0-0--0---8---8-8-8--10-10-10---|
D|---0--0-----0-0-0--0------0-0-0--0-------8-8-8--10-10-10---|
PM   .  .     . . .  .      . . .  .       . . .   .  .  .

e|-----------------------------------------------------|
B|-----------------------------------------------------|
G|--------10------------10------------10---------------|
D|---------x-------------x-------------x---10-10--10---|
A|---0--0--8--0-0-0--0---8--0-0-0--0---8---10-10--10---|
D|---0--0-----0-0-0--0------0-0-0--0-------10-10--10---|
PM   .  .     . . .  .      . . .  .    


Chorus = Intro Minus the slide

Repeat The Verse (See The "*" above the part in the verse after the
three palm muted D5 Open chords? Well on the repeat, instead of playing
what the * is over you play this:

e|-------------------------|
B|-------------------------|
G|---10--10--12------------|
D|----8---8--10------------|
A|----8---8--10------------|
D|----8---8--10---1/13\0---|

Then Go Straight Into The Pre-Chorus again

Then The Chorus Again


Solo - Still Woking

End Riff:   /--(x3)--\                              ~ = Vibrato
e|-----------------------------|---------------------------------|
B|-----------------------------|-------------------------8-------|
G|---10-9-7--7-9-7-------------|---10-9-7--7-10-7--7-10-----7~---|
D|-----------------10-10b---7--|---------------------------------|
A|-----------------------------|---------------------------------|
D|-----------------------------|---------------------------------|

I know this is a rough copy..
but here it is..
ill try to get the solo and the rest up soon
            
Submit corrections


        Sick Or Sane Fifty For A Twenty lessons Hard to play? Try these video lessons and learn fast Sick Or Sane Fifty For A Twenty lessons
        
↑ Back to top | Tablatures and chords for acoustic guitar and electric guitar, ukulele, drums are parodies/interpretations of the original songs. You may use it for private study, scholarship, research or language learning purposes only