» » »

Senses Fail - Shark Attack Tabs

Artists:  A B C D E F G H I J K L M N O P Q R S T U V W X Y Z # 

Shark Attack Tabs

(ver. 1) Click to play this song!
Senses Fail
 Rating:
4/5 (4 votes)

 Shark Attack lessons Tabs too difficult? Try these video lessons and learn fast
 
                Senses Fail - Still Searching - Shark Attack

Update : Fabruary 26, 2007 -
After screwing around, watching live vids, and listening over and over again. I found, 
seems to me, a more accurate way of playing the chorus and intro, indulge.

Update : ??? [ I still don't have the solo yet I'm currently working on "All the Best Cowboys
Daddy Issues" (95% complete) But this goes to people who don't have good ears. Some of
Fail's new stuff is in Drop-C, use your ears, if you don't agree how about you tab it.
of all, tabs are supposed to be ear transcribed, I could tab everything out in Drop-A
as long as I have the sounds going well with the recording then it's all good.]

[These are the parts I figured out so far, I would prefer you don't rate this yet until
I finish tabbing but if you want to be an ass do what you wish. I'm going to label
the sections and sh*t tell me what you think and sh*t. I'm not looking for the credit or
anything so I'll give credit to where it's due. so whatever you guys think works let
me know, use the comment box to add your additions, laters fellow fans!]


(INTRO)

[GUITAR 1]
d|-----------------------------------------------------------|
a|-----------------------------------------------------------|
f|-----------------------------------------------------------|
c|--7--0-0--0-8---0-0--0-7--10---7--0-0--0-8---0-0--0-7--10--|
g|--5--0-0--0-8---0-0--0-7--10---5--0-0--0-8---0-0--0-7--10--|
C|--0--0-0--0-8---0-0--0-7--10---0--0-0--0-8---0-0--0-7--10--|

[GUITAR 2]
d|-----------------------------------------------------------|
a|-----------------------------------------------------------|
f|-----------------------------------------------------------|
c|--7--0-0--0-8---0-0--0-7--10---7--0-0--0-8---0-0--0-7--10--|
g|--5--0-0--0-8---0-0--0-7--10---5--0-0--0-8---0-0--0-7--10--|
C|--0--0-0--0-8---0-0--0-7--10---0--0-0--0-8---0-0--0-7--10--|


[GUITAR 1]
d|-----------------------------------------------------------|
a|-----------------------------------------------------------|
f|-----------------------------------------------------------|
c|--7--0-0--0-8---0-0--0-7--10---7--0-0--0-8---0-0--0-7--10--|
g|--5--0-0--0-8---0-0--0-7--10---5--0-0--0-8---0-0--0-7--10--|
C|--0--0-0--0-8---0-0--0-7--10---0--0-0--0-8---0-0--0-7--10--|

[GUITAR 2]
d|-----------------------------------------------------------|
a|-----------------------------------------------------------|
f|-----------------------------------------------------------|
c|--7--0-0--0-8---0-0--0-7--10---7--0-0--0-8---0-0--0-7--10--|
g|--5--0-0--0-8---0-0--0-7--10---5--0-0--0-8---0-0--0-7--10--|
C|--0--0-0--0-8---0-0--0-7--10---0--0-0--0-8---0-0--0-7--10--|
[GUITAR 1]
d|-------------------------------------------------------------------------------|
a|-------------------------------------------------------------------------------|
f|--10-10-10-10-10-10-12-12-12-12-9-9-9-9--10-10-10-10-10-10-12-12-12-12-9-9-9-9-|
c|---x--x--x--x--x--x--x--x--x--x-x-x-x-x---x--x--x--x--x--x--x--x--x--x-x-x-x-x-|
g|---8--8--8--8--8--8-10-10-10-10-7-7-7-7---8--8--8--8--8--8-10-10-10-10-7-7-7-7-|
C|-------------------------------------------------------------------------------|

[GUITAR 2]
d|-----------------------------------------------------------|
a|-----------------------------------------------------------|
f|-----------------------------------------------------------|
c|--7--0-0--0-8---0-0--0-7--10---7--0-0--0-8---0-0--0-7--10--|
g|--5--0-0--0-8---0-0--0-7--10---5--0-0--0-8---0-0--0-7--10--|
C|--0--0-0--0-8---0-0--0-7--10---0--0-0--0-8---0-0--0-7--10--|


[GUITAR 1]
d|-------------------------------------------------------------------------------|
a|-------------------------------------------------------------------------------|
f|--10-10-10-10-10-10-12-12-12-12-9-9-9-9--10-10-10-10-10-10-12-12-12-12-9-9-9-9-|
c|---x--x--x--x--x--x--x--x--x--x-x-x-x-x---x--x--x--x--x--x--x--x--x--x-x-x-x-x-|
g|---8--8--8--8--8--8-10-10-10-10-7-7-7-7---8--8--8--8--8--8-10-10-10-10-7-7-7-7-|
C|-------------------------------------------------------------------------------|

[GUITAR 2]
d|-----------------------------------------------------------|
a|-----------------------------------------------------------|
f|-----------------------------------------------------------|
c|--7--0-0--0-8---0-0--0-7--10---7--0-0--0-8---0-0--0-7--10--|
g|--5--0-0--0-8---0-0--0-7--10---5--0-0--0-8---0-0--0-7--10--|
C|--0--0-0--0-8---0-0--0-7--10---0--0-0--0-8---0-0--0-7--10--|

(VERSE)

[GUITAR 1]
d|-------------------|------------------|
a|-------------------|------------------|
f|-------------------|------------------|
c|-0-----------------|-8----------------|
g|-0-----------------|-8----------------|
C|-0-----------------|-8----------------|

[GUITAR 2]
d|-------------------|------------------|
a|-------------------|------------------|
f|-------------------|------------------|
c|-0-----------------|-8----------------|
g|-0-----------------|-8----------------|
C|-0-----------------|-8----------------|

[GUITAR 1]
d|-------------------|------------------|
a|-------------------|------------------|
f|-------------------|------------------|
c|-0-----------------|-8----------------|
g|-0-----------------|-8----------------|
C|-0-----------------|-8----------------|

[GUITAR 2]
d|-------------------|------------------|
a|-------------------|------------------|
f|-------------------|------------------|
c|-0-----------------|-8----------------|
g|-0-----------------|-8----------------|
C|-0-----------------|-8----------------|


(PRE-CHORUS)


[GUITAR 1]
   PM------|      PM        PM    PM------|      PM---------------|       PM
d|----------------------------------------------------------------|
a|----------------------------------------------------------------|
f|----------------------------------------------------------------|
c|-0--0-0--0-10---10--10-9--9-9---8--8-8--8-10---10--10-9--9-9----|
g|-0--0-0--0--8----8---8-7--7-7---8--8-8--8--8----8---8-7--7-7----|
C|-0--0-0--0----------------------8--8-8--8-----------------------|

[GUITAR 2]
   PM------|      PM        PM    PM------|      PM---------------|       PM
d|----------------------------------------------------------------|
a|----------------------------------------------------------------|
f|----------------------------------------------------------------|
c|-0--0-0--0-10---10--10-9--9-9---8--8-8--8-10---10--10-9--9-9----|
g|-0--0-0--0--8----8---8-7--7-7---8--8-8--8--8----8---8-7--7-7----|
C|-0--0-0--0----------------------8--8-8--8-----------------------|

[GUITAR 1]
   PM------|      PM        PM    PM------|      PM---------------|       PM
d|----------------------------------------------------------------|
a|----------------------------------------------------------------|
f|----------------------------------------------------------------|
c|-0--0-0--0-10---10--10-9--9-9---8--8-8--8-10---10--10-9--9-9----|
g|-0--0-0--0--8----8---8-7--7-7---8--8-8--8--8----8---8-7--7-7----|
C|-0--0-0--0----------------------8--8-8--8-----------------------|

[GUITAR 2]
   PM------|      PM        PM    PM------|      PM---------------|       PM
d|----------------------------------------------------------------|
a|----------------------------------------------------------------|
f|----------------------------------------------------------------|
c|-0--0-0--0-10---10--10-9--9-9---8--8-8--8-10---10--10-9--9-9----|
g|-0--0-0--0--8----8---8-7--7-7---8--8-8--8--8----8---8-7--7-7----|
C|-0--0-0--0----------------------8--8-8--8-----------------------|

[GUITAR 1}
d|-----------------------------------------|
a|-----------------------------------------|
f|-10-10-10-10-10-10-10-10-9-9-9-9-9-9-9-9-|
c|--x--x--x--x--x--x--x--x-x-x-x-x-x-x-x-x-|
g|--8--8--8--8--8--8--8--8-7-7-7-7-7-7-7-7-|
C|-----------------------------------------|

[GUITAR 2]
d|-----------------------------------|
a|-----------------------------------|
f|-----------------------------------|
c|--8-8-8-8-8-8-8-8-8-8-8-8-8-8-8-8--|
g|--8-8-8-8-8-8-8-8-8-8-8-8-8-8-8-8--|
C|--8-8-8-8-8-8-8-8-8-8-8-8-8-8-8-8--|

[GUITAR 1}
d|-----------------------------------------|
a|-----------------------------------------|
f|-10-10-10-10-10-10-10-10-9-9-9-9-9-9-9-9-|
c|--x--x--x--x--x--x--x--x-x-x-x-x-x-x-x-x-|
g|--8--8--8--8--8--8--8--8-7-7-7-7-7-7-7-7-|
C|-----------------------------------------|

[GUITAR 2]
d|-----------------------------------|
a|-----------------------------------|
g|-----------------------------------|
c|--5-5-5-5-5-5-5-5-5-5-5-5-5-5-5-5--|
g|--5-5-5-5-5-5-5-5-5-5-5-5-5-5-5-5--|
C|--5-5-5-5-5-5-5-5-5-5-5-5-5-5-5-5--|

[GUITAR 1}
d|-----------------------------------------|
a|-----------------------------------------|
f|-10-10-10-10-10-10-10-10-9-9-9-9-9-9-9-9-|
c|--x--x--x--x--x--x--x--x-x-x-x-x-x-x-x-x-|
g|--8--8--8--8--8--8--8--8-7-7-7-7-7-7-7-7-|
C|-----------------------------------------|

[GUITAR 2]
d|-----------------------------------|
a|-----------------------------------|
f|-----------------------------------|
c|--8-8-8-8-8-8-8-8-8-8-8-8-8-8-8-8--|
g|--8-8-8-8-8-8-8-8-8-8-8-8-8-8-8-8--|
C|--8-8-8-8-8-8-8-8-8-8-8-8-8-8-8-8--|

[GUITAR 1}
d|-----------------------------------------|
a|-----------------------------------------|
f|-10-10-10-10-10-10-10-10-9-9-9-9-9-9-9-9-|
c|--x--x--x--x--x--x--x--x-x-x-x-x-x-x-x-x-|
g|--8--8--8--8--8--8--8--8-7-7-7-7-7-7-7-7-|
C|-----------------------------------------|

[GUITAR 2]
d|-----------------------------------|
a|-----------------------------------|
g|-----------------------------------|
c|--5-5-5-5-5-5-5-5-5-5-5-5-5-5-5-5--|
g|--5-5-5-5-5-5-5-5-5-5-5-5-5-5-5-5--|
C|--5-5-5-5-5-5-5-5-5-5-5-5-5-5-5-5--|


(CHORUS)
[AUTHOR's NOTE : I don't know why, playing this part especially is really fun]

[GUITAR 1]
d|-----------------------------------------------------------------|
a|-----------------------------------------------------------------|
f|------10--10-------10--10----9--------10--10-------10--10----10--|
c|-0--0--X--1X-0---0--X---X-0--X---0--0--X---X-0---0--X---X-0---X--|
g|-0--0--8---8-0---0--8---8-0--7---0--0--8---8-0---0--8---8-0---7--|
C|-0--0--------0---0--------0------0--0--------0---0--------0------|

[GUITAR 2]
d|-----------------------------------------------------------------|
a|-----------------------------------------------------------------|
f|------10--10-------10--10----9--------10--10-------10--10----10--|
c|-0--0--X--1X-0---0--X---X-0--X---0--0--X---X-0---0--X---X-0---X--|
g|-0--0--8---8-0---0--8---8-0--7---0--0--8---8-0---0--8---8-0---7--|
C|-0--0--------0---0--------0------0--0--------0---0--------0------|

[GUITAR 1]
d|-------------------------------------------|
a|-------------------------------------------|
f|------10-10-------------------10-10--------|
c|-8--8--X--X-8------------5--5--X--X-5------|
g|-8--8--8--8-8------------5--5--8--8-5------|
C|-8--8-------8------------5--5-------5------|

[GUITAR 2]
d|-------------------------------------------|
a|-------------------------------------------|
f|------10-10-------------------10-10--------|
c|-8--8-10-10-8------------5--5-10-10-5------|
g|-8--8--8--8-8------------5--5--8--8-5------|
C|-8--8-------8------------5--5-------5------|

[GUITAR 1]
d|-----------------------------------------------------------------|
a|-----------------------------------------------------------------|
f|------10--10-------10--10----9--------10--10-------10--10----10--|
c|-0--0--X--1X-0---0--X---X-0--X---0--0--X---X-0---0--X---X-0---X--|
g|-0--0--8---8-0---0--8---8-0--7---0--0--8---8-0---0--8---8-0---7--|
C|-0--0--------0---0--------0------0--0--------0---0--------0------|

[GUITAR 2]
d|-----------------------------------------------------------------|
a|-----------------------------------------------------------------|
f|------10--10-------10--10----9--------10--10-------10--10----10--|
c|-0--0--X--1X-0---0--X---X-0--X---0--0--X---X-0---0--X---X-0---X--|
g|-0--0--8---8-0---0--8---8-0--7---0--0--8---8-0---0--8---8-0---7--|
C|-0--0--------0---0--------0------0--0--------0---0--------0------|

[GUITAR 1]
d|-------------------------------------------|
a|-------------------------------------------|
f|------10-10-------------------10-10--------|
c|-8--8--X--X-8------------5--5--X--X-5------|
g|-8--8--8--8-8------------5--5--8--8-5------|
C|-8--8-------8------------5--5-------5------|

[GUITAR 2]
d|-------------------------------------------|
a|-------------------------------------------|
f|------10-10-------------------10-10--------|
c|-8--8-10-10-8------------5--5-10-10-5------|
g|-8--8--8--8-8------------5--5--8--8-5------|
C|-8--8-------8------------5--5-------5------|


(VERSE)

[GUITAR 1]
d|-------------------|------------------|
a|-------------------|------------------|
f|-------------------|------------------|
c|-0-----------------|-8----------------|
g|-0-----------------|-8----------------|
C|-0-----------------|-8----------------|

[GUITAR 2]
d|-------------------|------------------|
a|-------------------|------------------|
f|-------------------|------------------|
c|-0-----------------|-8----------------|
g|-0-----------------|-8----------------|
C|-0-----------------|-8----------------|

[GUITAR 1]
d|-------------------|------------------|
a|-------------------|------------------|
f|-------------------|------------------|
c|-0-----------------|-8----------------|
g|-0-----------------|-8----------------|
C|-0-----------------|-8----------------|

[GUITAR 2]
d|-------------------|------------------|
a|-------------------|------------------|
f|-------------------|------------------|
c|-0-----------------|-8----------------|
g|-0-----------------|-8----------------|
C|-0-----------------|-8----------------|


(PRE-CHORUS)


[GUITAR 1]
   PM------|      PM        PM    PM------|      PM---------------|       PM
d|----------------------------------------------------------------|
a|----------------------------------------------------------------|
f|----------------------------------------------------------------|
c|-0--0-0--0-10---10--10-9--9-9---8--8-8--8-10---10--10-9--9-9----|
g|-0--0-0--0--8----8---8-7--7-7---8--8-8--8--8----8---8-7--7-7----|
C|-0--0-0--0----------------------8--8-8--8-----------------------|

[GUITAR 2]
   PM------|      PM        PM    PM------|      PM---------------|       PM
d|----------------------------------------------------------------|
a|----------------------------------------------------------------|
f|----------------------------------------------------------------|
c|-0--0-0--0-10---10--10-9--9-9---8--8-8--8-10---10--10-9--9-9----|
g|-0--0-0--0--8----8---8-7--7-7---8--8-8--8--8----8---8-7--7-7----|
C|-0--0-0--0----------------------8--8-8--8-----------------------|

[GUITAR 1]
   PM------|      PM        PM    PM------|      PM---------------|       PM
d|----------------------------------------------------------------|
a|----------------------------------------------------------------|
f|----------------------------------------------------------------|
c|-0--0-0--0-10---10--10-9--9-9---8--8-8--8-10---10--10-9--9-9----|
g|-0--0-0--0--8----8---8-7--7-7---8--8-8--8--8----8---8-7--7-7----|
C|-0--0-0--0----------------------8--8-8--8-----------------------|

[GUITAR 2]
   PM------|      PM        PM    PM------|      PM---------------|       PM
d|----------------------------------------------------------------|
a|----------------------------------------------------------------|
f|----------------------------------------------------------------|
c|-0--0-0--0-10---10--10-9--9-9---8--8-8--8-10---10--10-9--9-9----|
g|-0--0-0--0--8----8---8-7--7-7---8--8-8--8--8----8---8-7--7-7----|
C|-0--0-0--0----------------------8--8-8--8-----------------------|

[GUITAR 1}
d|-----------------------------------------|
a|-----------------------------------------|
f|-10-10-10-10-10-10-10-10-9-9-9-9-9-9-9-9-|
c|--x--x--x--x--x--x--x--x-x-x-x-x-x-x-x-x-|
g|--8--8--8--8--8--8--8--8-7-7-7-7-7-7-7-7-|
C|-----------------------------------------|

[GUITAR 2]
d|-----------------------------------|
a|-----------------------------------|
f|-----------------------------------|
c|--8-8-8-8-8-8-8-8-8-8-8-8-8-8-8-8--|
g|--8-8-8-8-8-8-8-8-8-8-8-8-8-8-8-8--|
C|--8-8-8-8-8-8-8-8-8-8-8-8-8-8-8-8--|

[GUITAR 1}
d|-----------------------------------------|
a|-----------------------------------------|
f|-10-10-10-10-10-10-10-10-9-9-9-9-9-9-9-9-|
c|--x--x--x--x--x--x--x--x-x-x-x-x-x-x-x-x-|
g|--8--8--8--8--8--8--8--8-7-7-7-7-7-7-7-7-|
C|-----------------------------------------|

[GUITAR 2]
d|-----------------------------------|
a|-----------------------------------|
g|-----------------------------------|
c|--5-5-5-5-5-5-5-5-5-5-5-5-5-5-5-5--|
g|--5-5-5-5-5-5-5-5-5-5-5-5-5-5-5-5--|
C|--5-5-5-5-5-5-5-5-5-5-5-5-5-5-5-5--|

[GUITAR 1}
d|-----------------------------------------|
a|-----------------------------------------|
f|-10-10-10-10-10-10-10-10-9-9-9-9-9-9-9-9-|
c|--x--x--x--x--x--x--x--x-x-x-x-x-x-x-x-x-|
g|--8--8--8--8--8--8--8--8-7-7-7-7-7-7-7-7-|
C|-----------------------------------------|

[GUITAR 2]
d|-----------------------------------|
a|-----------------------------------|
f|-----------------------------------|
c|--8-8-8-8-8-8-8-8-8-8-8-8-8-8-8-8--|
g|--8-8-8-8-8-8-8-8-8-8-8-8-8-8-8-8--|
C|--8-8-8-8-8-8-8-8-8-8-8-8-8-8-8-8--|

[GUITAR 1}
d|-----------------------------------------|
a|-----------------------------------------|
f|-10-10-10-10-10-10-10-10-9-9-9-9-9-9-9-9-|
c|--x--x--x--x--x--x--x--x-x-x-x-x-x-x-x-x-|
g|--8--8--8--8--8--8--8--8-7-7-7-7-7-7-7-7-|
C|-----------------------------------------|

[GUITAR 2]
d|-----------------------------------|
a|-----------------------------------|
g|-----------------------------------|
c|--5-5-5-5-5-5-5-5-5-5-5-5-5-5-5-5--|
g|--5-5-5-5-5-5-5-5-5-5-5-5-5-5-5-5--|
C|--5-5-5-5-5-5-5-5-5-5-5-5-5-5-5-5--|

(CHORUS)

[GUITAR 1]
d|-----------------------------------------------------------------|
a|-----------------------------------------------------------------|
f|------10--10-------10--10----9--------10--10-------10--10----10--|
c|-0--0--X--1X-0---0--X---X-0--X---0--0--X---X-0---0--X---X-0---X--|
g|-0--0--8---8-0---0--8---8-0--7---0--0--8---8-0---0--8---8-0---7--|
C|-0--0--------0---0--------0------0--0--------0---0--------0------|

[GUITAR 2]
d|-----------------------------------------------------------------|
a|-----------------------------------------------------------------|
f|------10--10-------10--10----9--------10--10-------10--10----10--|
c|-0--0--X--1X-0---0--X---X-0--X---0--0--X---X-0---0--X---X-0---X--|
g|-0--0--8---8-0---0--8---8-0--7---0--0--8---8-0---0--8---8-0---7--|
C|-0--0--------0---0--------0------0--0--------0---0--------0------|

[GUITAR 1]
d|-------------------------------------------|
a|-------------------------------------------|
f|------10-10-------------------10-10--------|
c|-8--8--X--X-8------------5--5--X--X-5------|
g|-8--8--8--8-8------------5--5--8--8-5------|
C|-8--8-------8------------5--5-------5------|

[GUITAR 2]
d|-------------------------------------------|
a|-------------------------------------------|
f|------10-10-------------------10-10--------|
c|-8--8-10-10-8------------5--5-10-10-5------|
g|-8--8--8--8-8------------5--5--8--8-5------|
C|-8--8-------8------------5--5-------5------|


[GUITAR 1]
d|-----------------------------------------------------------------|
a|-----------------------------------------------------------------|
f|------10--10-------10--10----9--------10--10-------10--10----10--|
c|-0--0--X--1X-0---0--X---X-0--X---0--0--X---X-0---0--X---X-0---X--|
g|-0--0--8---8-0---0--8---8-0--7---0--0--8---8-0---0--8---8-0---7--|
C|-0--0--------0---0--------0------0--0--------0---0--------0------|

[GUITAR 2]
d|-----------------------------------------------------------------|
a|-----------------------------------------------------------------|
f|------10--10-------10--10----9--------10--10-------10--10----10--|
c|-0--0--X--1X-0---0--X---X-0--X---0--0--X---X-0---0--X---X-0---X--|
g|-0--0--8---8-0---0--8---8-0--7---0--0--8---8-0---0--8---8-0---7--|
C|-0--0--------0---0--------0------0--0--------0---0--------0------|
[GUITAR 1]
d|-------------------------------------------|
a|-------------------------------------------|
f|------10-10-------------------10-10--------|
c|-8--8--X--X-8------------5--5--X--X-5------|
g|-8--8--8--8-8------------5--5--8--8-5------|
C|-8--8-------8------------5--5-------5------|

[GUITAR 2]
d|-------------------------------------------|
a|-------------------------------------------|
f|------10-10-------------------10-10--------|
c|-8--8-10-10-8------------5--5-10-10-5------|
g|-8--8--8--8-8------------5--5--8--8-5------|
C|-8--8-------8------------5--5-------5------|

(BRIDGE)

[GUITAR 1]
d|----------------------------------------------------------|
a|----------------------------------------------------------|
f|----------------------------------------------------------|
c|-0--0--0--10---10--10--0--0---0--10--10--10---0--0--0-----|
g|-0--0--0---8----8---8--0--0---0---8---8---8---0--0--0-----|
C|-0--0--0---------------0--0---0---------------0--0--0-----|

[GUITAR 2]
d|----------------------------------------------------------|
a|----------------------------------------------------------|
f|----------------------------------------------------------|
c|-0--0--0--10---10--10--0--0---0--10--10--10---0--0--0-----|
g|-0--0--0---8----8---8--0--0---0---8---8---8---0--0--0-----|
C|-0--0--0---------------0--0---0---------------0--0--0-----|

[GUITAR 1]
d|-------------------------------------------------|
a|-------------------------------------------------|
f|-------------------------------------------------|
c|-8--8--8--8--8--8--8--5--5--5--5--5--5--5--5-----|
g|-8--8--8--8--8--8--8--5--5--5--5--5--5--5--5-----|
C|-8--8--8--8--8--8--8--5--5--5--5--5--5--5--5-----|


[GUITAR 2]
d|-------------------------------------------------|
a|-------------------------------------------------|
f|-------------------------------------------------|
c|-8--8--8--8--8--8--8--5--5--5--5--5--5--5--5-----|
g|-8--8--8--8--8--8--8--5--5--5--5--5--5--5--5-----|
C|-8--8--8--8--8--8--8--5--5--5--5--5--5--5--5-----|


[GUITAR 1]
d|----------------------------------------------------------|
a|----------------------------------------------------------|
f|----------------------------------------------------------|
c|-0--0--0--10---10--10--0--0---0--10--10--10---0--0--0-----|
g|-0--0--0---8----8---8--0--0---0---8---8---8---0--0--0-----|
C|-0--0--0---------------0--0---0---------------0--0--0-----|

[GUITAR 2]
d|----------------------------------------------------------|
a|----------------------------------------------------------|
f|----------------------------------------------------------|
c|-0--0--0--10---10--10--0--0---0--10--10--10---0--0--0-----|
g|-0--0--0---8----8---8--0--0---0---8---8---8---0--0--0-----|
C|-0--0--0---------------0--0---0---------------0--0--0-----|

[GUITAR 1]
d|-------------------------------------------------|
a|-------------------------------------------------|
f|-------------------------------------------------|
c|-8--8--8--8--8--8--8--5--5--5--5--5--5--5--5-----|
g|-8--8--8--8--8--8--8--5--5--5--5--5--5--5--5-----|
C|-8--8--8--8--8--8--8--5--5--5--5--5--5--5--5-----|


[GUITAR 2]
d|-------------------------------------------------|
a|-------------------------------------------------|
f|-------------------------------------------------|
c|-8--8--8--8--8--8--8--5--5--5--5--5--5--5--5-----|
g|-8--8--8--8--8--8--8--5--5--5--5--5--5--5--5-----|
C|-8--8--8--8--8--8--8--5--5--5--5--5--5--5--5-----|

(BREAKDOWN)
(AUTHOR'S NOTE: When you see, [#] It's an Artificial Harmonic
and the ~~~ Is for Vibrato)


[GUITAR 1]
   PM------------|                PM-------------------------------|
d|-----------------------------------------------------------------|
a|-----------------------------------------------------------------|
f|-----------------------------------------------------------------|
c|-0-0-0-0-0-0-0-0--10-10---------0-0-0-0-0-0-0-0--0-2-3-0-2-------|
g|-0-0-0-0-0-0-0-0---8--8---------0-0-0-0-0-0-0-0------------------|
C|-0-0-0-0-0-0-0-0----------------0-0-0-0-0-0-0-0------------------|

[GUITAR 2]
   PM------------|                PM-------------------------------|
d|-----------------------------------------------------------------|
a|-----------------------------------------------------------------|
f|-----------------------------------------------------------------|
c|-0-0-0-0-0-0-0-0--10-10---------0-0-0-0-0-0-0-0--0-2-3-0-2-------|
g|-0-0-0-0-0-0-0-0---8--8---------0-0-0-0-0-0-0-0------------------|
C|-0-0-0-0-0-0-0-0----------------0-0-0-0-0-0-0-0------------------|

[GUITAR 1]
   PM------------|                PM------------|           ~~~-----|
d|------------------------------------------------------------------|
a|------------------------------------------------------------------|
f|------------------------------------------------------------------|
c|-8-8-8-8-8-8-8-8--10--10--------8-8-8-8-8-8-8-8----------[2]------|
g|-8-8-8-8-8-8-8-8---8---8--------8-8-8-8-8-8-8-8-------------------|
C|-8-8-8-8-8-8-8-8----------------8-8-8-8-8-8-8-8--0-2-3-0----------|

[GUITAR 2]
   PM------------|                PM--------------------------------|
d|------------------------------------------------------------------|
a|------------------------------------------------------------------|
f|------------------------------------------------------------------|
c|-8-8-8-8-8-8-8-8--10--10--------8-8-8-8-8-8-8-8-------------------|
g|-8-8-8-8-8-8-8-8---8---8--------8-8-8-8-8-8-8-8-------------------|
C|-8-8-8-8-8-8-8-8----------------8-8-8-8-8-8-8-8--0-2-3-0--2-------|


[GUITAR 1]
   PM------------|                PM-------------------------------|
d|-----------------------------------------------------------------|
a|-----------------------------------------------------------------|
f|-----------------------------------------------------------------|
c|-0-0-0-0-0-0-0-0--10-10---------0-0-0-0-0-0-0-0--0-2-3-0-2-------|
g|-0-0-0-0-0-0-0-0---8--8---------0-0-0-0-0-0-0-0------------------|
C|-0-0-0-0-0-0-0-0----------------0-0-0-0-0-0-0-0------------------|

[GUITAR 2]
   PM------------|                PM-------------------------------|
d|-----------------------------------------------------------------|
a|-----------------------------------------------------------------|
f|-----------------------------------------------------------------|
c|-0-0-0-0-0-0-0-0--10-10---------0-0-0-0-0-0-0-0--0-2-3-0-2-------|
g|-0-0-0-0-0-0-0-0---8--8---------0-0-0-0-0-0-0-0------------------|
C|-0-0-0-0-0-0-0-0----------------0-0-0-0-0-0-0-0------------------|


[GUITAR 1]
   PM------------|                PM-----------------------------|
d|---------------------------------------------------------------|
a|---------------------------------------------------------------|
f|---------------------------------------------------------------|
c|-8-8-8-8-8-8-8-8--10--10--------8-8-8-8-8-8-8-8---0-0--0-------|
g|-8-8-8-8-8-8-8-8---8---8--------8-8-8-8-8-8-8-8---0-0--0-------|
C|-8-8-8-8-8-8-8-8----------------8-8-8-8-8-8-8-8---0-0--0-------|

[GUITAR 2]
   PM------------|                PM-----------------------------|
d|---------------------------------------------------------------|
a|---------------------------------------------------------------|
f|---------------------------------------------------------------|
c|-8-8-8-8-8-8-8-8--10--10--------8-8-8-8-8-8-8-8---0-0--0-------|
g|-8-8-8-8-8-8-8-8---8---8--------8-8-8-8-8-8-8-8---0-0--0-------|
C|-8-8-8-8-8-8-8-8----------------8-8-8-8-8-8-8-8---0-0--0-------|


(SOLO)
(AUTHOR'S NOTE: Ok, ok, don't kill me, I didn't finish the solo
My apoligies, why don't you just try to figure it our yourself
I'll finish this sometime soon.., hopefully)

(By the way, [GUITAR 2] plays this..
[GUITAR 2]
d|-----------------------------------------------------------|
a|-----------------------------------------------------------|
f|-----------------------------------------------------------|
c|--0--0-0--0-8---0-0--0-7--10---0--0-0--0-8---0-0--0-7--10--|
g|--0--0-0--0-8---0-0--0-7--10---0--0-0--0-8---0-0--0-7--10--|
C|--0--0-0--0-8---0-0--0-7--10---0--0-0--0-8---0-0--0-7--10--|

While [GUITAR 1] Solos, so yeah. I'll just make the following space until
the end comes.. you'll see what I mean)


(This is what I got so far from the solo)
[GUITAR 1
d|--------------------------------------------|
a|--------------------------------------------|
f|--7-10-9-10----10-12-14-12-10-12--14-15-17--|
c|--------------------------------------------|
g|--------------------------------------------|
C|--------------------------------------------|

(ENDING CHORUS & OUTRO)

(AUTHOR'S NOTE: And then, there's that pause)


[GUITAR 1&2]

  ...


"So save yourself--"
[GUITAR 1]
d|-----------------------------------------------------------------|
a|-----------------------------------------------------------------|
f|------10--10-------10--10----9--------10--10-------10--10----10--|
c|-0--0--X--1X-0---0--X---X-0--X---0--0--X---X-0---0--X---X-0---X--|
g|-0--0--8---8-0---0--8---8-0--7---0--0--8---8-0---0--8---8-0---7--|
C|-0--0--------0---0--------0------0--0--------0---0--------0------|

[GUITAR 2]
d|-----------------------------------------------------------------|
a|-----------------------------------------------------------------|
f|------10--10-------10--10----9--------10--10-------10--10----10--|
c|-0--0--X--1X-0---0--X---X-0--X---0--0--X---X-0---0--X---X-0---X--|
g|-0--0--8---8-0---0--8---8-0--7---0--0--8---8-0---0--8---8-0---7--|
C|-0--0--------0---0--------0------0--0--------0---0--------0------|

[GUITAR 1]
d|-------------------------------------------|
a|-------------------------------------------|
f|------10-10-------------------10-10--------|
c|-8--8-10-10-8------------5--5-10-10-5------|
g|-8--8--8--8-8------------5--5--8--8-5------|
C|-8--8-------8------------5--5-------5------|


[GUITAR 2]
d|-------------------------------------------|
a|-------------------------------------------|
f|------10-10-------------------10-10--------|
c|-8--8-10-10-8------------5--5-10-10-5------|
g|-8--8--8--8-8------------5--5--8--8-5------|
C|-8--8-------8------------5--5-------5------|

[GUITAR 1]
d|-----------------------------------------------------------------|
a|-----------------------------------------------------------------|
f|------10--10-------10--10----9--------10--10-------10--10----10--|
c|-0--0--X--1X-0---0--X---X-0--X---0--0--X---X-0---0--X---X-0---X--|
g|-0--0--8---8-0---0--8---8-0--7---0--0--8---8-0---0--8---8-0---7--|
C|-0--0--------0---0--------0------0--0--------0---0--------0------|

[GUITAR 2]
d|-----------------------------------------------------------------|
a|-----------------------------------------------------------------|
f|------10--10-------10--10----9--------10--10-------10--10----10--|
c|-0--0--X--1X-0---0--X---X-0--X---0--0--X---X-0---0--X---X-0---X--|
g|-0--0--8---8-0---0--8---8-0--7---0--0--8---8-0---0--8---8-0---7--|
C|-0--0--------0---0--------0------0--0--------0---0--------0------|

[GUITAR 1]
d|-----------------------------------------------|
a|-----------------------------------------------|
f|------10-10-------------------10-10------------|
c|-8--8--X--X-8------------5--5--X--X-5-5-5--3---|
g|-8--8--8--8-8------------5--5--8--8-5-5-5--3---|
C|-8--8-------8------------5--5-------5-5-5--3---|

[GUITAR 2]
d|-----------------------------------------------|
a|-----------------------------------------------|
f|------10-10-------------------10-10------------|
c|-8--8--X--X-8------------5--5--X--X-5-5-5--3---|
g|-8--8--8--8-8------------5--5--8--8-5-5-5--3---|
C|-8--8-------8------------5--5-------5-5-5--3---|

[GUITAR 1]
d|------------------------------------------------------|
a|------------------------------------------------------|
f|------------------------------------------------------|
c|-0--0--0--10---10--10--0--0---0--10--10--10---0-------|
g|-0--0--0---8----8---8--0--0---0---8---8---8---0-------|
C|-0--0--0---------------0--0---0---------------0-------|

[GUITAR 2]
d|------------------------------------------------------|
a|------------------------------------------------------|
f|------------------------------------------------------|
c|-0--0--0--10---10--10--0--0---0--10--10--10---0-------|
g|-0--0--0---8----8---8--0--0---0---8---8---8---0-------|
C|-0--0--0---------------0--0---0---------------0-------|

[GUITAR 1]
   PM--------|              PM---------------------------|
d|-------------------------------------------------------|
a|-------------------------------------------------------|
f|-------------------------------------------------------|
c|-0-0-0-0-0-0-10---10--10--0-0-0-0--0-0-0-0---0---------|
g|-0-0-0-0-0-0--8----8---8--0-0-0-0--0-0-0-0---0--RING---|
C|-0-0-0-0-0-0--------------0-0-0-0--0-0-0-0---0---------|

[GUITAR 1]
   PM--------|              PM---------------------------|
d|-------------------------------------------------------|
a|-------------------------------------------------------|
f|-------------------------------------------------------|
c|-0-0-0-0-0-0-10---10--10--0-0-0-0--0-0-0-0---0---------|
g|-0-0-0-0-0-0--8----8---8--0-0-0-0--0-0-0-0---0--RING---|
C|-0-0-0-0-0-0--------------0-0-0-0--0-0-0-0---0---------|
            
Submit corrections


        Shark Attack lessons Hard to play? Try these video lessons and learn fast Shark Attack lessons
        
↑ Back to top | Tablatures and chords for acoustic guitar and electric guitar, ukulele, drums are parodies/interpretations of the original songs. You may use it for private study, scholarship, research or language learning purposes only