» » »

Senses Fail - Martini Kiss Bass

Artists:  A B C D E F G H I J K L M N O P Q R S T U V W X Y Z # 

Martini Kiss Bass

(ver. 1) Click to play this song!
Senses Fail
 Rating:
4/5 (4 votes)

 Martini Kiss lessons Tabs too difficult? Try these video lessons and learn fast
 
                
Tuning: GDAD


Intro Riff:

G|----------------------------------------------------------------------|
D|----------------------------------------------------------------------|
A|----------------------------------------------------------------------|
D|-0-0-0-0-0-0-0-0-0-0-0-0-0-0-0-0--------------------------------------|

G|----------------------------------------------------------------------|
D|----------------------------------------------------------------------|
A|-1-1-1-1-1---1-1-1-1-1---1-1-1---1-1-1-1-1---1-1-1-1-1---3-3-3--------|
D|----------------------------------------------------------------------|

G|----------------------------------------------------------------------|
D|---------------------------------3-3-3-3-3-3-2-2-2-2-2-2-3-2----------|
A|-------------------------------------------------------------3-3------|
D|-0-0-0-0-0---0-0-0-0-0---0-0-0----------------------------------------|

G|----------------------------------------------------------------------|
D|----------------------------------------------------------------------|
A|-1-1-1-1-1---1-1-1-1-1---1-1-1---1-1-1-1-1---1-1-1-1-1---3-3-3--------|
D|----------------------------------------------------------------------|

G|----------------------------------------------------------------------|
D|---------------------------------3-3-3-3-3-3-2-2-2-2-2-2-3-2----------|
A|-------------------------------------------------------------3-3------|
D|-0-0-0-0-0---0-0-0-0-0---0-0-0----------------------------------------|

D|----------------------------------------------------------------------|
A|----------------------------------------------------------------------|
D|-0-0-0-0-0-0-0-0-0-0-0-0-0-0-0-0--------------------------------------|

Verse:

G|----------------------------------------------------------------------|
D|----------------------------------------------------------------------|
A|-1-1-1-1-1---1-1---1-1---1-1-1---1-1-1-1-1---1-1--1-1---3-3-3---------|
D|----------------------------------------------------------------------|

G|----------------------------------------------------------------------|
D|----------------------------------------------------------------------|
A|----------------------------------------------------------------------|
D|-0-0-0-0-0---0-0---0-0---0-0-0---0-0-0-0-0---0-0--0-0---0-0-0---------|

G|----------------------------------------------------------------------|
D|----------------------------------------------------------------------|
A|-1-1-1-1-1---1-1---1-1---1-1-1---1-1-1-1-1---1-1--1-1---3-3-3---------|
D|----------------------------------------------------------------------|

G|----------------------------------------------------------------------|
D|----------------------------------------------------------------------|
A|----------------------------------------------------------------------|
D|-0-0-0-0-0---0-0---0-0---0-0-0---0-0-0-0-0---0-0-0-0-0-0-0-0-0--------|

Chorus:

G|----------------------------------------------------------------------|
D|----------------------------------------------------------------------|
A|-1-1-1-1-1---1-1-1-1-1---1-1-1---1-1-1-1-1---1-1-1-1-1---3-3-3--------|
D|----------------------------------------------------------------------|

G|----------------------------------------------------------------------|
D|---------------------------------3-3-3-3-3-3-2-2-2-2-2-2-3-2----------|
A|-------------------------------------------------------------3-3------|
D|-0-0-0-0-0---0-0-0-0-0---0-0-0----------------------------------------|

G|----------------------------------------------------------------------|
D|----------------------------------------------------------------------|
A|-1-1-1-1-1---1-1-1-1-1---1-1-1---1-1-1-1-1---1-1-1-1-1---3-3-3--------|
D|----------------------------------------------------------------------|

G|----------------------------------------------------------------------|
D|---------------------------------3-3-3-2-2-2-5-5-5-3-3-3-2-3-2--------|
A|---------------------------------------------------------------3------|
D|-0-0-0-0-0---0-0-0-0-0---0-0-0----------------------------------------|

Post Chorus:

G|----------------------------------------------------------------------|
D|----------------------------------------------------------------------|
A|----------------------------------------------------------------------|
D|-3-3/15-15-15-15-15-15-15---2-2/14-14-14-14-14-14-14------------------|

G|----------------------------------------------------------------------|
D|----------------------------------------------------------------------|
A|-1-1-1-1-1-1-1-1-1-1-1-1-3-3-3----------------------------------------|
D|-------------------------------0-0-0-0-0-0-0-0-0----------------------|

G|----------------------------------------------------------------------|
D|----------------------------------------------------------------------|
A|----------------------------------------------------------------------|
D|-3-3/15-15-15-15-15-15-15---2-2/14-14-14-14-14-14-14------------------|

G|----------------------------------------------------------------------|
D|----------------------------------------------------------------------|
A|-1-1-1-1-1-1-1-1-1-1-1-1-3-3-3----------------------------------------|
D|-------------------------------0-0-0-0-0-0-0-0-0----------------------|

Half of Chorus:

G|----------------------------------------------------------------------|
D|----------------------------------------------------------------------|
A|-1-1-1-1-1---1-1-1-1-1---1-1-1---1-1-1-1-1---1-1-1-1-1---3-3-3--------|
D|----------------------------------------------------------------------|

G|----------------------------------------------------------------------|
D|---------------------------------3-3-3-3-3-3-2-2-2-2-2-2-3-2----------|
A|-------------------------------------------------------------3-3------|
D|-0-0-0-0-0---0-0-0-0-0---0-0-0----------------------------------------|

Verse:

G|----------------------------------------------------------------------|
D|----------------------------------------------------------------------|
A|-1-1-1-1-1---1-1---1-1---1-1-1---1-1-1-1-1---1-1--1-1---3-3-3---------|
D|----------------------------------------------------------------------|

G|----------------------------------------------------------------------|
D|----------------------------------------------------------------------|
A|----------------------------------------------------------------------|
D|-0-0-0-0-0---0-0---0-0---0-0-0---0-0-0-0-0---0-0--0-0---0-0-0---------|

G|----------------------------------------------------------------------|
D|----------------------------------------------------------------------|
A|-1-1-1-1-1---1-1---1-1---1-1-1---1-1-1-1-1---1-1--1-1---3-3-3---------|
D|----------------------------------------------------------------------|

G|----------------------------------------------------------------------|
D|----------------------------------------------------------------------|
A|----------------------------------------------------------------------|
D|-0-0-0-0-0---0-0---0-0---0-0-0---0-0-0-0-0---0-0-0-0-0-0-0-0-0--------|

Chorus:

G|----------------------------------------------------------------------|
D|----------------------------------------------------------------------|
A|-1-1-1-1-1---1-1-1-1-1---1-1-1---1-1-1-1-1---1-1-1-1-1---3-3-3--------|
D|----------------------------------------------------------------------|

G|----------------------------------------------------------------------|
D|---------------------------------3-3-3-3-3-3-2-2-2-2-2-2-3-2----------|
A|-------------------------------------------------------------3-3------|
D|-0-0-0-0-0---0-0-0-0-0---0-0-0----------------------------------------|

G|----------------------------------------------------------------------|
D|----------------------------------------------------------------------|
A|-1-1-1-1-1---1-1-1-1-1---1-1-1---1-1-1-1-1---1-1-1-1-1---3-3-3--------|
D|----------------------------------------------------------------------|

G|----------------------------------------------------------------------|
D|---------------------------------3-3-3-2-2-2-5-5-5-3-3-3-2-3-2--------|
A|---------------------------------------------------------------3------|
D|-0-0-0-0-0---0-0-0-0-0---0-0-0----------------------------------------|

Post Chorus:

G|----------------------------------------------------------------------|
D|----------------------------------------------------------------------|
A|----------------------------------------------------------------------|
D|-3-3/15-15-15-15-15-15-15---2-2/14-14-14-14-14-14-14------------------|

G|----------------------------------------------------------------------|
D|----------------------------------------------------------------------|
A|-1-1-1-1-1-1-1-1-1-1-1-1-3-3-3----------------------------------------|
D|-------------------------------0-0-0-0-0-0-0-0-0----------------------|

G|----------------------------------------------------------------------|
D|----------------------------------------------------------------------|
A|----------------------------------------------------------------------|
D|-3-3/15-15-15-15-15-15-15---2-2/14-14-14-14-14-14-14------------------|

G|----------------------------------------------------------------------|
D|----------------------------------------------------------------------|
A|-1-1-1-1-1-1-1-1-1-1-1-1-3-3-3----------------------------------------|
D|-------------------------------0-0-0-0-0-0-0-0-0----------------------|

Intro Riff:

G|----------------------------------------------------------------------|
D|----------------------------------------------------------------------|
A|----------------------------------------------------------------------|
D|-0-0-0-0-0-0-0-0-0-0-0-0-0-0-0-0--------------------------------------|

G|----------------------------------------------------------------------|
D|----------------------------------------------------------------------|
A|----------------------------------------------------------------------|
D|-0-0-0-0-0-0-0-0-0-0-0-0-0-0-0-0--------------------------------------|

Bridge/Breakdown:

G|----------------------------------------------------------------------|
D|-------3-2-----------3-5-2--------------------------------------------|
A|---1-0-----3-----1-0--------------------------------------------------|
D|-0-------------0------------------------------------------------------|

G|----------------------------------------------------------------------|
D|-------3-2-----------3-5-2--------------------------------------------|
A|---1-0-----3-----1-0--------------------------------------------------|
D|-0-------------0------------------------------------------------------|

G|----------------------------------------------------------------------|
D|----------------------------------------------------------------------|
A|-1-1-1-1-1-1-1-1-1-1-1-1-1-1-1-1-3-3-3-3-3-3-3-3-3-3-3-3-3-3-3-3------|
D|----------------------------------------------------------------------|

G|------------------------------------------------------------------------|
D|------------------------------------------------------------------------|
A|------------------------------------------------------------------------|
D|-0-0-0-0-0--0--0-0-0-0-0--0-0-0-0-0--0-0-0-0-0--0--0-0-0-0-0--0-0-0-0-0-|

G|----------------------------------------------------------------------|
D|----------------------------------------------------------------------|
A|-1-1-1-1-1-1-1-1-1-1-1-1-1-1-1-1-3-3-3-3-3-3-3-3-3-3-3-3-3-3-3-3------|
D|----------------------------------------------------------------------|

G|------------------------------------------------------------------------|
D|------------------------------------------------------------------------|
A|------------------------------------------------------------------------|
D|-0-0-0-0-0--0--0-0-0-0-0--0-0-0-0-0--0-0-0-0-0--0--0-0-0-0-0--0-0-0-0-0-|

G|----------------------------------------------------------------------|
D|----------------------------------------------------------------------|
A|-1-1-1-1-1-1-1-1-1-1-1-1-1-1-1-1-3-3-3-3-3-3-3-3-3-3-3-3-3-3-3-3------|
D|----------------------------------------------------------------------|

G|----------------------------------------------------------------------|
D|----------------------------------------------------------------------|
A|-1-1-1-1-1-1-1-1-1-1-1-1-1-1-1-1-3-3-3-3-3-3-3-3/8-8-8-8-7-7-7-7------|
D|----------------------------------------------------------------------|

G|------------------------------------------------------------------------|
D|------------------------------------------------------------------------|
A|------------------------------------------------------------------------|
D|-0-0-0-0-0--0--0-0-0-0-0--0-0-0-0-0--0-0-0-0-0--0--0-0-0-0-0--0-0-0-0-0-|

G|------------------------------------------------------------------------|
D|------------------------------------------------------------------------|
A|------------------------------------------------------------------------|
D|-0-0-0-0-0--0--0-0-0-0-0--0-0-0-0-0--0-0-0-0-0--0--0-0-0-0-0--0-0-0-0-0-|

G|------------------------------------------------------------------------|
D|------------------------------------------------------------------------|
A|------------------------------------------------------------------------|
D|-0-0-0-0-0--0--0-0-0-0-0--0-0-0-0-0--0----------------------------------|


| /  slide up
| \  slide down
| h  hammer-on
| p  pull-off
| ~  vibrato
| +  harmonic
| x  Mute note
===============================================================================
            
Submit corrections


        Martini Kiss lessons Hard to play? Try these video lessons and learn fast Martini Kiss lessons
        
↑ Back to top | Tablatures and chords for acoustic guitar and electric guitar, ukulele, drums are parodies/interpretations of the original songs. You may use it for private study, scholarship, research or language learning purposes only