» » »

Senses Fail - Battle Hymn Tabs

Artists:  A B C D E F G H I J K L M N O P Q R S T U V W X Y Z # 

Battle Hymn Tabs

(ver. 1) Click to play this song!
Senses Fail
 Rating:
4.3/5 (6 votes)

 Battle Hymn lessons Tabs too difficult? Try these video lessons and learn fast
 
                -------------------------------------------------------------------------------
-------------------------------------------------------------------------------

As of 11/7/09 I revised the intro and chorus, but I'm still unsure of the chorus.  
I guess you can use this as a reference if you wanna go for 100% accuracy.

Tuning: Drop C (CGCFAD)


INTRO

D|------|
A|------|
F|------|
C|-/15--|
G|-/15--|
C|-/15--|


(x3)
D|-----------------------------------|
A|-----------------------------------|
F|-----------------------------------|
C|-----------------------------------|
G|-5---3-5------------------3--------|
C|---0-----0-7-0-8-0--5h7p0---0-5-7--|


D|---------------|
A|---------------|
F|---------------|
C|-xxxx-xxxx-xx--|
G|-xxxx-xxxx-xx--|
C|-xxxx-xxxx-xx--|


(x3)
D|----------------------------------|
A|----------------------------------|
F|-7---5-7-----------------5--------|
C|---0-----0-7-0-8-0-5-7-0---0-5-7--|
G|----------------------------------|
C|----------------------------------|


D|------------------------------------|
A|------------------------------------|
F|---------5-------7---9---10---9-10--|
C|-0-5-7-0---7-5-7---0---0----0-------|
G|------------------------------------|
C|------------------------------------|


D|----------------------------------------------------------------------------------|
A|----------------------------------------------------------------------------------|
F|-10---9-10--------9----------------------10---9-10--------12---10---9---10-9h10p9-|
C|----0------0-12-0---0-10-0-12-0-10h12p10----0------0-12-0----0----0---0-----------|
G|----------------------------------------------------------------------------------|
C|----------------------------------------------------------------------------------|


D|-----------------------------------------------------------------------------------|
A|-----------------------------------------8h10p8-----------8h10p8-------------------|
F|-10---9-10--------9-----------------------------10-9-10-9--------10-9-7----9----7--|
C|----0------0-12-0---0-10-0-12-0-10h12p10--------------------------------10---10----|
G|-----------------------------------------------------------------------------------|
C|-----------------------------------------------------------------------------------|
C|-----------------------------------------------------------------------------------|


VERSE
(x2)
D|------------------|
A|------------------|
F|------------------|
C|-0~----8~----10~--|
G|-0~----8~----10~--|
C|-0~----8~----10~--|


(Figure out strumming patten yourself.  It's easy... or just watch/listen to the video)
D|---------------------------------|
A|---------------------------------|
F|---9-10----10-12---7-14----------|
D|-0-x-x--10-x--x--5-x-x--5-3-5-3--|
G|-0-7-8--10-8--10-5-5-12-5-3-5-3--|
C|-0------10-------5------5-3-5-3--|


CHORUS (Play twice)

D|-----------------------------------------5--------|
A|-5h6p5-----------6-8-5---5h6p5-------------8-6-5--|
F|-------7-5-7-5---------7-------7-5-7-5------------|
C|---------------7-----------------------7----------|
G|--------------------------------------------------|
C|--------------------------------------------------|

D|-----------------------------------------------------------|
A|-5h6p5-----------8h10p8-----------8h10p8-------------------|
F|-------7-5-7-5----------10-9-10-9--------10-9-7----9----7--|
C|---------------7--------------------------------10---10----|
G|-----------------------------------------------------------|
C|-----------------------------------------------------------|

VERSE

CHORUS

PRE-BRIDGE (Yeah.. I don't know what to call it lol)
Again, figure out strumming yourself
D|------------|
A|------------|
F|------------|
C|-8-5-3-2-0--|
G|-8-5-3-2-0--|
C|-8-5-3-2-0--|

BRIDGE
D|-----------------------------------------------------------|
A|-----------------------------------------------------------|
F|-----10~--9~--14~--11~--10~--9~--9~--9~--14~--11~--10~--9~-|
C|-0~--x----x---x----x----x----x---7~--x---x----x----x----x--|
G|-0~--8~---7~--12~--9~---8~---7~--7~--7~--12~--9~---8~---7~-|
C|-0~--------------------------------------------------------|


INTRO RIFF
Repeat how many times necessary...  It alternates every other time by leaving 
the last two notes
D|-----------------------------------|
A|-----------------------------------|
F|-----------------------------------|
C|-----------------------------------|
G|-5---3-5------------------3--------|
C|---0-----0-7-0-8-0--5h7p0---0-5-7--|


D|-----------|
A|-----------|
F|-10--------|
C|-x-(x18)---|
G|-8---------|
C|-----------|

CHORUS

INTRO RIFF (x3)

OUTRO
D|----------|
A|----------|
F|----------|
C|-0-0-0-1--|
G|-0-0-0-1--|
C|-0-0-0-1--|

(x3)
D|-----------------|
A|-----------------|
F|-----------------|
C|-12-10-12-7-8----|
G|-12-10-12-7-8----|
C|-12-10-12-7-8----|

D|-------------|
A|-------------|
F|-------------|
C|-88-88-8-0~--|
G|-88-88-8-0~--|
C|-88-88-8-0~--|

| /  slide up
| h  hammer-on
| p  pull-off
| ~  let ring
| x  Mute note
===============================================================================
            
Submit corrections


        Battle Hymn lessons Hard to play? Try these video lessons and learn fast Battle Hymn lessons
        
↑ Back to top | Tablatures and chords for acoustic guitar and electric guitar, ukulele, drums are parodies/interpretations of the original songs. You may use it for private study, scholarship, research or language learning purposes only