» » »

Scorpions - Du Bist So Scmutzig Tabs

Artists:  A B C D E F G H I J K L M N O P Q R S T U V W X Y Z # 

Du Bist So Scmutzig Tabs

(ver. 1) Click to play this song!
Scorpions
 Rating:
4/5 (4 votes)

 Du Bist So Scmutzig lessons Tabs too difficult? Try these video lessons and learn fast
 
                THE TUNNING IS NOT STANDARD
THE CHORDS ARE
E B G D A D
THE 'E' BASS CHORD MUST BE TUNED TO 'D'
ANY COMMENTS OR CORRECTIONS ARE WELCOMED
HAVE FUN...

---3-2---0-1---1-3------------------------------------------------------------
---------------------3-1-3----------------------------------------------------
------------------------------------7-----------------------------------------
------------------------------------7-----------------------------------------
------------------------------------5-----------------------------------------
-0-----0-----0-----0----------------------------------------------------------
 intro accoustic guitar      elect guitar with effects                        

----10-13-10-10-10---15p17-15-13-10----10-13-10-10-10-------------------------
-13---------------------------------13-----------------8b10-8-6-----6---------
 verse    D    F    C    D    F    C    D    D    F    C    D    F    C    D  

----------2----1----0----2----1----0----2----2----1----0----2----1----0----2--
----------3----1----1----3----1----1----3----3----1----1----3----1----1----3--
----------2----2----0----2----2----0----2----2----2----0----2----2----0----2--
----------0----3----2----0----3----2----0----0----3----2----0----3----2----0--
----------0----3----3----0----3----3----0----0----3----3----0----3----3----0--
          der atem kalt..........................................voller gier  

-------------------0-----------2-----------0-x-x-x-x-x-x-x--------------0-----
---------2p0-2p0-2---2p0-2p0-2---2p0-2p0-2---2-0--------------2p0-2p0-2-------
-------------------------------------------------5-3-0-0-0--------------------
         damn you slam you..........         (muted notes)                    

--------------------------2---------------------------------------------------
-----------2-----------0--2---------------------------------------------------
-2p0-2p0-2---2p0-2p0-2----0---------------------------------------------------
        ....what's your size                                                  

-----------7-------------7-------------4--------------------------------------
-----------7------5------7------7------4------5------7------------------------
-----------5------5------5------7------2------5------7------------------------
------------------5-------------7-------------5------7------------------------
 chorus    du bist so schmutzig........ich will mich....                      

------------------------------9-----------------------------------------------
------------------------------9----7----5-7-----------------------7----5-7----
------------------------------7----7----5-7---3-2-0---------------7----5-7----
-----------------------------------7----5-7---------5-3-0-3-5b7---7----5-7----
 instumental ...zu amusier'n                                      (repeat...} 

-3-2-0------------------------------------------------------------------------
-------5-3-0-3-5b7------------------------------------------------------------
 and the song continues as before...
            
Submit corrections


        Du Bist So Scmutzig lessons Hard to play? Try these video lessons and learn fast Du Bist So Scmutzig lessons
        
↑ Back to top | Tablatures and chords for acoustic guitar and electric guitar, ukulele, drums are parodies/interpretations of the original songs. You may use it for private study, scholarship, research or language learning purposes only