» » »

Saves The Day - Houses And Billboards Bass

Artists:  A B C D E F G H I J K L M N O P Q R S T U V W X Y Z # 

Houses And Billboards Bass

(ver. 1) Click to play this song!
Saves The Day
 Rating:
4/5 (4 votes)


 Houses And Billboards lessons Tabs too difficult? Try these video lessons and learn fast
 
                “Houses and Billboards” by Saves the Day, for the bass guitar.



>=Strum quickly
x=Dead note

Intro:
G|--------------------------|
D|--------------------------|
A|-33-(guitar break)-----3~-|
E|--------------------------|

Verse (Remember that last friday...):
G|------------------------------------|
D|---------33-3-22-2------------------|
A|-33333-3----------------------------| x4
E|-------------------1111-1-00-0-33-3-|

Transition:
G|-------------------------|
D|-----------22-2-3-2------|
A|-33-3-22-2---------5-----| x2
E|----------------------1>-|

Transition pt.2
G|--------------------------------------------------|
D|--------------------------------------------------|
A|---------------33-333-333-333-333-3-------------3~|
E|-5>--x0-1-0-1-----------------------5>-x0-1-0-1---|

Verse x2

“I will sit...” awesome part:
G|-------------|    |-------------|
D|-------------|    |-------------|
A|-3-333-5>-8>-| x2 |-------------|
E|-------------|    |-1-1-1-3-0-3-|

I’ll call this the “breakdown”:
G|----------------------------------|
D|----------------------------------|
A|-3-3-3~---------------------------| x2
E|---------3-3-3~---5-5-5~---1-1-1~-|

A|--3--|   Then a guitar break

Outro, play for the rest of the song with different strumming patterns:
G|-------------------------------------|
D|-------------------------------------|
A|-3-3-3-3-3-3-3-3--8-8-8-8-8-8-8-8-8--|
E|-------------------------------------|

End on:
A|--3~~--|

If you need any other old STD songs tabbed, my AIM is xxvrufiovxx.
            
Submit corrections



        Houses And Billboards lessons Hard to play? Try these video lessons and learn fast Houses And Billboards lessons
        
↑ Back to top | Tablatures and chords for acoustic guitar and electric guitar, ukulele, drums are parodies/interpretations of the original songs. You may use it for private study, scholarship, research or language learning purposes only