» » »

Savatage - White Witch Bass

Artists:  A B C D E F G H I J K L M N O P Q R S T U V W X Y Z # 

White Witch Bass

(ver. 1) Click to play this song!
Savatage
 Rating:
4/5 (4 votes)


 White Witch lessons Tabs too difficult? Try these video lessons and learn fast
 
                |----------------------------------------|
|----------------Savatage----------------|
|--------------White-Witch---------------|
|----Hall-Of-The-Mountain-King-(1987)----|
|----------------------------------------|


Tempo: 137 BPM (approx.)
Tuning: Down 1 Step (D G C F)

------
Riffs:
------

Verse

     E E H.  W
F|-|-------|---|
C|4|-------|---|
G|4|-7-9-R-|-R-|
D|-|-------|---|... listen carefully and always enter with the drums


Pre-Chorus

      E E E E E E E E 2x E E E E E E E E   E E E E Q Q Q
F|-|-------------------|-----------------|---------------|
C|4|o-----------------o|-----------------|---------------|
G|4|o-----------------o|-----------------|---------------|
D|-|--4-4-4-4-4-4-4-4--|-5-5-5-5-5-5-5-5-|-5-5-5-5-5-7-5-|
                                                   |-3-|
then

      E E E E E E E E 2x E E E E E E E E   E.E.E.E.E E
F|-|-------------------|-----------------|-------------|
C|4|o-----------------o|-----------------|-------------|
G|4|o-----------------o|-----------------|-------------|
D|-|--4-4-4-4-4-4-4-4--|-5-5-5-5-5-5-5-5-|-7-7-7-7-7-5-|


Chorus

     E.E.E H   H  H   E.E.E H   H  H
F|-|---------|------|---------|------|
C|4|---------|------|---------|------|
G|4|---------|-0--2-|---------|-5--7-|
D|-|-2-2-0-2-|------|-2-2-0-2-|------|


Interlude A

     E E E E E E E E
F|-|-----------------|
C|4|-----------------|
G|4|-5-4-4-4-4-4-4-4-|
D|-|-----------------|


Interlude A Variation (V.)

      E E E E E E E E 3x   E E E E E Q Q Q
F|-|-------------------|-|-----------------|
C|4|o-----------------o|9|-----------------|
G|4|o-5-4-4-4-4-4-4-4-o|8|-5-4-4-4-4-4-----|
D|-|-------------------|-|-------------5-4-|
                                     |-3-|

Interlude B

     E E E E E E E E
F|-|-----------------|
C|4|-----------------|
G|4|-----------------|
D|-|-5-4-4-4-4-4-4-4-|


Outro

      H  H 8x Q  E E E E E E   Q  H.
F|-|--------|----------------|------|
C|4|o------o|------7---7-6---|------|
G|4|o-5--7-o|-R--9---9-----7-|-9--R-|
D|-|--------|----------------|------|

----------
Structure:
----------
Verse            3x
Pre-Chorus       1x
Chorus           2x
Verse            3x
Pre-Chorus       1x
Chorus           2x
Interlude A      4x
Interlude B      4x
Interlude A (V.) 1x
Chorus           2x
Verse            3x
Chorus           2x
Interlude A (V.) 1x
Chorus           2x
Outro            1x


------------
Description
------------
W     - whole notes
H     - half notes
Q     - quarter notes
E     - 8th notess
S     - 16th notes
.     - note dotted (e.g. "E." or "Q.")
(x)   - let ring the note
R     - pause
|-x-| - tuplet


|4|
|4|   - Time Signature (e.g. stands for 4/4)

|o    - repeat start
o|    - repeat end
            
Submit corrections



        White Witch lessons Hard to play? Try these video lessons and learn fast White Witch lessons
        
↑ Back to top | Tablatures and chords for acoustic guitar and electric guitar, ukulele, drums are parodies/interpretations of the original songs. You may use it for private study, scholarship, research or language learning purposes only