» » »

Savatage - Sleep Tabs

Artists:  A B C D E F G H I J K L M N O P Q R S T U V W X Y Z # 

Sleep Tabs

(ver. 3) Click to play this song!
Savatage
 Rating:
4/5 (4 votes)


 Sleep lessons Tabs too difficult? Try these video lessons and learn fast
 
                
SLEEP (ACOUSTIC BONUS TRACK VERSION)
As recorded by Savatage
(From the 1995 Album DEAD WINTER DEAD)

	

Words and Music by Jon Oliva, Criss Oliva, Paul O'Neill

G5
3 x 0 0 3 3
	
Em7
0 2 2 0 3 0
	
Bm
x 2 4 4 3 2
	
C
x 3 2 0 1 0

D
x x 0 2 3 2
	
Dsus2
x x 0 2 3 0
	
Dsus4(type 2)
x x 0 2 3 3
	
C(type 2)
x 3 2 0 1 3

Em
0 2 2 0 0 0
	
Em6add9
0 4 4 0 x x
	
Em7(type 2)
0 5 5 0 x x
	
Gadd4/B
x 2 0 0 1 x

Am
x 0 2 2 1 0
	
E5
0 2 2 x x x
	
F#5
2 4 4 x x x
	
G5III
3 5 5 x x x

A5
x 0 2 2 x x

Gtr I (E A D G B E) - 'Acoustic'

 Intro
  Q=126
  G               Bm               Em7
 4/4
  Gtr I
  Q  E E Q  E E   E E E Q  E E E   E E E E E E E E   +E  E E E E E E E
|------3-3------|-------2--------|---------0-------|-----0-------------|
|------3-3------|----------3-----|-----------3---3-|-(3)---3-------3---|
|----0-0-0--0---|-----4------4---|-------0-----0---|---------0---0---0-|
|---------------|---4----------4-|-----2-----------|-----------2-------|
|-------------0-|-2--------------|---2-------------|-------------------|
|-3-------------|----------------|-0---------------|-------------------|


  C                                   D            Dsus4   D   Dsus2
  Q  E E E E E E   +E  E E Q  E E E   Q  E E E E E E   +E  E E Q  E E E
|--------0-----3-|-(3)-----3--3-----|--------2-----3-|-(3)-2---0--------||
|----1-----1-----|-----1---1--1-----|----3-----3-----|------------3-----||
|------0-----0---|-------0------0---|------2-----2---|-------2------2---||
|----------------|----------------2-|-0--------------|----------------0-||
|-3--------------|------------------|----------------|------------------||
|----------------|------------------|----------------|------------------||


   Verses I & II
    $
    G               Bm              Em          (Em7)
    E Q  E Q  E E   E Q  Q  E E E   E Q  E Q  E E   +E  E E E E E E E
||-------3-3------|------2--------|--------0------|-----0--------------|
||o------3-3------|------3--3-----|------0-0----3-|-(3)---3-------3----|
||-------0-0--0---|------4----4---|--------0--0---|---------0---0---0--|
||----------------|---4---------4-|---------------|-----------2--------|
||o-------------0-|-2-------------|---2-----------|--------------------|
||--3-3-----------|---------------|-0-------------|--------------------|


  C                                   D            Dsus4   D   Dsus2
  Q.   E Q   E  E   +E  Q  E E Q  E   Q  E E E E E E    E  E E E  E  E E E
|--------0--(0)-3-|-(3)-3--3-3-3p=0-|----2---2-----3-|-(3)-2---0-(0)--------||
|------1-1--(1)-1-|-(1)-1--1---1----|------3---3-----|---------------3-----o||
|--------0---0--0-|-(0)-0--0--------|------------2---|--2----2----2----2----||
|-----------------|-----------------|-0--------------|-------------------0--||
|-3---------------|-----------------|----------------|---------------------o||
|-----------------|-----------------|----------------|----------------------||


   Chorus
    Bm                Em
    Q   Q   E E E E   Q  E E Q   E   E
||----------2-2-2---|------0-0--(0)-(0)-|
||o---------3-3-3---|------0-0---0--(0)-|
||--4---4---4-4-4---|-------------------|
||--4--(4)--4-4-4---|-2--2--------------|
||o-2--(2)--2-2-2-0-|-2--------------0--|
||------------------|-0-----------------|


  Bm                Em                C       Gadd4/B
  Q   E  E Q  E E   E E E E E E E E   E E E E E E E E
|--------2-2------|---------0-------|-------------------|
|--------3-3--3---|-----------0-----|-------1-------1---|
|-----4--4-4------|-------0---------|-----0-------0-----|
|-----------------|-----2-----------|---2-------0-------|
|-2--(2)--------0-|---2---------0-2-|-3-------2---------|
|-----------------|-0---------------|-------------------|


                   1.
  Am      G         Am
  E E E E E E E E   H    Q  E E
|-----------------|-------------|
|-------1---------|------1------|
|-----2---------0-|-2----2--2-0-|
|---2---------0---|-2-----------|
|-0---------2-----|-0-----------|
|---------3-------|-------------|


                       2.
                                      To Coda
        D               D
   Q.   S S E E E E     Q.   S S E E E E   W
|-------2h3p2--------||------2h3p2-------|-------||
|-(3)---------3-----o||-3----------3-----|-3-----||
|--2------------2----||-2------------2---|-------||
|--0--------------0--||-0--------------0-|-------||
|-------------------o||------------------|-------||
|--------------------||------------------|-------||


 Out-Chorus I
                                                          D.S. al Coda
  Em                      D          Em                      D
  E E E E E E E E   E E E E E Q  E   E E E E E E E E   E E E E E Q  E
|-----------0-----|-------2---2----|-----------0-----|-------2---2-----||
|---------0---0---|-------3---3----|---------0---0---|-------3---3-----||
|-------0-------0-|-------2---2----|-------0-------0-|-------2---2-----||
|-----2-----------|-2-----0---0----|-----2-----------|-2-----0---0-----||
|---2-------------|---2p0--------0-|---2-------------|---2p0--------0--||
|-0---------------|----------------|-0---------------|-----------------||


 Out-Chorus II
  &
  Em                      D          Em                      D
  E E E E E E E E   E E E E E Q  E   E E E E E E E E   E E E E E S S E E
|-----------0-----|-------2---2----|-----------0-----|-------2---2-3-2---|
|---------0---0---|-------3---3----|---------0---0---|-------3---------3-|
|-------0-------0-|-------2---2----|-------0-------0-|-------2-----------|
|-----2-----------|-2-----0---0----|-----2-----------|-2-----0-----------|
|---2-------------|---2p0--------0-|---2-------------|---2p0-------------|
|-0---------------|----------------|-0---------------|-------------------|


  Em                      D             Em                      D
  E E E E E E E E   E E E E E S S E E   E E E E E E E E   E E E E E Q  E
|-----------0-----|-------2---2-3-2---|-----------0-----|-------2---2----||
|---------0---0---|-------3---------3-|---------0---0---|-------3---3----||
|-------0-------0-|-------2-----------|-------0-------0-|-------2---2----||
|-----2-----------|-2-----0-----------|-----2-----------|-2-----0---0----||
|---2-------------|---2p0-------------|---2-------------|---2p0--------0-||
|-0---------------|-------------------|-0---------------|----------------||


 Bridge
  Em      Em6add9   Em7(typeEm6add9   Em      Em6add9   Em7(typeEm6add9
  E E E E E E E E   E E E E E E E E   E E E E E E E E   E E E E E E E E
|-----------------|-----------------|-----------------|-----------------|
|-----------------|-----------------|-----------------|-----------------|
|-------0-------0-|-------0-------0-|-------0-------0-|-------0-------0-|
|-----2-------4---|-----5-------4---|-----2-------4---|-----5-------4---|
|---2-------4-----|---5-------4-----|---2-------4-----|---5-------4-----|
|-0-------0-------|-0-------0-------|-0-------0-------|-0-------0-------|


  Em/B    Em/C#     Em/D    Em/C#     Em/B    Em/C#     Em/D    Em/C# A5
  E E E E E E E E   E E E E E E E E   E E E E E E E E   E E E E E E E E
|---0-------0-----|---0-------0-----|---0-------0-----|---0-------0-----||
|-----0-------0---|-----0-------0---|-----0-------0---|-----0-------0---||
|-------0-------0-|-------0-------0-|-------0-------0-|-------0-------2-||
|-----------------|-----------------|-----------------|---------------2-||
|-2-------4-------|-5-------4-------|-2-------4-------|-5-------4-----0-||
|-----------------|-----------------|-----------------|-----------------||
  H       H         H       H         H       H         H       H


 "Guitar Break"
  A5
      PM--------------------------|
  E E E E E E E E   e e e e e e e E
|-----------------|-----------------|
|-----------------|-----------------|
|-2-2-2-2-2-2-2-2-|-2-2-2-2-2-2-2---|
|-2-2-2-2-2-2-2-2-|-2-2-2-2-2-2-2---|
|-0-0-0-0-0-0-0-0-|-0-0-0-0-0-0-0-0-|
|-----------------|-----------------|


  E5 F#5G5IIIE5      F#5G5IEm      E5 F#5G5IIIE5      F#5G5IIIN.C.
  q  q  Q  E e   +e  q  Q  E E E   q  q  Q  E e   +e  q  Q  E S S S S
|--------------|-----------0-----|--------------|-----------------------|
|--------------|-------------0---|--------------|-----------------------|
|--------------|---------------0-|--------------|-----------------------|
|-2--4--5--x-2-|-(2)-4--5--------|-2--4--5--x-2-|-(2)-4--5----0h2p0h2---|
|-2--4--5--x-2-|-(2)-4--5--------|-2--4--5--x-2-|-(2)-4--5--0-----------|
|-0--2--3--x-0-|-(0)-2--3--------|-0--2--3--x-0-|-(0)-2--3--------------|


  E5 F#5G5IIIE5      F#5G5IEm      A5          G
  q  q  Q  E e   +e  q  Q  E E E   Q  e E Q  e E   +E  Q  Q  E E E
|--------------|-----------0-----|-------------3-|-(3)-3--3--3-----|
|--------------|-------------0---|-------------3-|-(3)-3--3--3-3---|
|--------------|---------------0-|-2--2-2-2--2-0-|-(0)-0--0--0-0---|
|-2--4--5--x-2-|-(2)-4--5--------|-2--2-2-2--2---|-----------------|
|-2--4--5--x-2-|-(2)-4--5--------|-0--0-0-0--0---|---------------0-|
|-0--2--3--x-0-|-(0)-2--3--------|---------------|-----------------|


  E5 F#5G5IIIE5      F#5G5IIIN.C.      E5 F#5G5IIIE5      F#5G5IEm
  q  q  Q  E e   +e  q  Q  E S S S S   q  q  Q  E e   +e  q  Q  E E E
|--------------|---------------------|--------------|-----------0-------|
|--------------|---------------------|--------------|-------------0-----|
|--------------|---------------------|--------------|---------------0---|
|-2--4--5--x-2-|-(2)-4--5----0h2p0h2-|-2--4--5--x-2-|-(2)-4--5----------|
|-2--4--5--x-2-|-(2)-4--5--0---------|-2--4--5--x-2-|-(2)-4--5----------|
|-0--2--3--x-0-|-(0)-2--3------------|-0--2--3--x-0-|-(0)-2--3----------|


                        H.=H
  E5 F#5G5IIIE5      F#5G5IEm      A5          G
  q  q  Q  E e   +e  q  Q  E E E   Q  e E Q  e E   H    E E E E
|--------------|-----------0-----|---------------|-3----3-------||
|--------------|-------------0---|---------------|-3------3-----||
|--------------|---------------0-|-2--2-2-2--2-0-|-0--------0---||
|-2--4--5--x-2-|-(2)-4--5--------|-2--2-2-2--2-0-|-0----------0-||
|-2--4--5--x-2-|-(2)-4--5--------|-0--0-0-0--0-x-|--------------||
|-0--2--3--x-0-|-(0)-2--3--------|-------------3-|-3------------||


 Outro
  G               Bm               Em
  Q  E E Q  E E   E E E Q  E E E   E E E E Q  Q      W
|------3-3------|-------2--------|------------0--|-<12>----*|
|------3-3------|-------3--3-----|---------0-----|---------*|
|----0-0-0--0---|-----4------4---|-------0-------|---------*|
|---------------|---4----------4-|-----2---------|---------*|
|-------------0-|-2--------------|---2-----------|---------*|
|-3-------------|----------------|-0-------------|---------*|



Duration Legend
---------------
W - whole; H - half; Q - quarter; E - 8th; S - 16th; T - 32nd; X - 64th; a - acciaccatura
+ - note tied to previous; . - note dotted; .. - note double dotted
Uncapitalized letters represent notes that are staccato (1/2 duration)
Irregular groupings are notated above the duration line
Duration letters will always appear directly above the note/fret number it represents the
duration for.  Duration letters with no fret number below them represent rests.  Multi-
bar rests are notated in the form Wxn, where n is the number of bars to rest for.  Low
melody durations appear below the staff

Tablature Legend
----------------
 h   - hammer-on
 p   - pull-off
 b   - bend
 pb  - pre-bend
 r   - bend release (if no number after the r, then release immediately)
 /\  - slide into or out of (from/to "nowhere")
 s   - legato slide
 S   - shift slide
 - natural harmonic
[n]  - artificial harmonic
n(n) - tapped harmonic
 ~   - vibrato
 tr  - trill
 T   - tap
 TP  - trem. picking
 PM  - palm muting
\n/  - tremolo bar dip; n = amount to dip
 \n  - tremolo bar down
 n/  - tremolo bar up
/n\  - tremolo bar inverted dip
 =   - hold bend; also acts as connecting device for hammers/pulls
 <> - volume swell (louder/softer)
 x   - on rhythm slash represents muted slash
 o   - on rhythm slash represents single note slash

Misc Legend
-----------
 |  - bar
||  - double bar
||o - repeat start
o|| - repeat end
*|  - double bar (ending)
 :  - bar (freetime)
 $  - Segno
 &  - Coda
Tempo markers -  = BPM(8/16=s8/s16), where s8 = swing 8ths, s16 = swing 16ths
            
Submit corrections



        Sleep lessons Hard to play? Try these video lessons and learn fast Sleep lessons
        
↑ Back to top | Tablatures and chords for acoustic guitar and electric guitar, ukulele, drums are parodies/interpretations of the original songs. You may use it for private study, scholarship, research or language learning purposes only