» » »

Saron Gas - Tied My Hands Tabs

Artists:  A B C D E F G H I J K L M N O P Q R S T U V W X Y Z # 

Tied My Hands Tabs

(ver. 1) Click to play this song!
Saron Gas
 Rating:
4/5 (4 votes)


 Tied My Hands lessons Tabs too difficult? Try these video lessons and learn fast
 
                Intro
|--------3--3-3-3--3-3-3--3-3-|---------3--3-3-3--3-3p0--3-3-|
|--------3--3-3-3--3-3-3--3-3-|---------3--3-3-3--3-3p0--0-0-|
|0--0-0--0--0-0-0--0-0-0--0-0-|-0--0-0--0--0-0-0--0-0-0--0-0-|REPEAT 2
|2--2-2--2--2-2-2--2-2-2--2-2-|-2--2-2--2--2-2-2--2-2-2--2-2-|
|2--2-2-----------------------|-2--2-2-----------------------|
|0--0-0-----------------------|-0--0-0-----------------------|
 d  d u  d  d u u  d u u  d u   d  d u  d  d u u  d u u  d u

Verse
|--------3--3-3-3--3-3-3--3-3-|---------3--3-3-3--3-3-3--3-3-|1.Can You Remember..
|--------3--3-3-3--3-3-3--3-3-|---------3--3-3-3--3-3-3--3-3-|  When We Used To
|0--0-0--0--0-0-0--0-0-0--0-0-|-0--0-0--0--0-0-0--0-0-0--0-0-|
|2--2-2--2--2-2-2--2-2-2--2-2-|-2--2-2--2--2-2-2--2-2-2--2-2-|2.Can You Remember.. 
|2--2-2-----------------------|-2--2-2-----------------------|  When We Used To
|0--0-0-----------------------|-0--0-0-----------------------|
 d  d u  d  d u u  d u u  d u   d  d u  d  d u u  d u u  d u

|0--0-0--0--0-0-0--0-0-0--0-0-|-0--0-0--0--0-0-0--0-0-0--0-0-|1.Cry
|1--1-1--1--1-1-1--1-1-1--1-1-|-1--1-1--1--1-1-1--1-1-1--1-1-|  But Never In Dis-
|0--0-0--0--0-0-0--0-0-0--0-0-|-0--0-0--0--0-0-0--0-0-0--0-0-|
|2--2-2--2--2-2-2--2-2-2--2-2-|-2--2-2--2--2-2-2--2-2-2--2-2-|2.Laugh
|3--3-3--3--3-3-3--3-3-3--3-3-|-3--3-3--3--3-3-3--3-3-3--3-3-|  Bout Those...
|0--0-0--0--0-0-0--0-0-0--0-0-|-0--0-0--0--0-0-0--0-0-0--0-0-|
 d  d u  d  d u u  d u u  d u   d  d u  d  d u u  d u u  d u

|--------3--3-3-3--3-3p0--0-0-|---------3--3-3p0--0-0-0--0-0-|1.tress
|--------3--3-3-3--3-3p0--0-0-|---------3--3-3p0--0-0-0--0-0-|
|0--0-0--0--0-0-0--0-0-0--0-0-|-0--0-0--0--0-0-0--0-0-0--0-0-|
|2--2-2--2--2-2-2--2-2-2--2-2-|-2--2-2--2--2-2-2--2-2-2--2-2-|2.de
|2--2-2-----------------------|-2--2-2-----------------------|
|0--0-0-----------------------|-0--0-0-----------------------|
 d  d u  d  d u u  d u u  d u   d  d u  d  d u u  d u u  d u

|--------3--3-3-3--3-3-3--3-3-|---------3--3-3-3--3-3-3--3-3-|1.Or Can You...
|--------3--3-3-3--3-3-3--3-3-|---------3--3-3-3--3-3-3--3-3-|  How We Used To Pri-
|0--0-0--0--0-0-0--0-0-0--0-0-|-0--0-0--0--0-0-0--0-0-0--0-0-|
|2--2-2--2--2-2-2--2-2-2--2-2-|-2--2-2--2--2-2-2--2-2-2--2-2-|2.Or Can You... 
|2--2-2-----------------------|-2--2-2-----------------------|  How We used To Dri-
|0--0-0-----------------------|-0--0-0-----------------------|
 d  d u  d  d u u  d u u  d u   d  d u  d  d u u  d u u  d u

|0--0-0--0--0-0-0--0-0-0--0-0-|-0--0-0--0--0-0-0--0-0-0--0-0-|1.ide
|1--1-1--1--1-1-1--1-1-1--1-1-|-1--1-1--1--1-1-1--1-1-1--1-1-|  Ourselves on neat-
|0--0-0--0--0-0-0--0-0-0--0-0-|-0--0-0--0--0-0-0--0-0-0--0-0-|
|2--2-2--2--2-2-2--2-2-2--2-2-|-2--2-2--2--2-2-2--2-2-2--2-2-|2.ve
|3--3-3--3--3-3-3--3-3-3--3-3-|-3--3-3--3--3-3-3--3-3-3--3-3-|  But never... 
|0--0-0--0--0-0-0--0-0-0--0-0-|-0--0-0--0--0-0-0--0-0-0--0-0-|
 d  d u  d  d u u  d u u  d u   d  d u  d  d u u  d u u  d u

|--------3--3-3-3--3-3p0--0-0-|---------3--3-3p0--0-3p0--0-0-|1.ness
|--------3--3-3-3--3-3p0--0-0-|---------3--3-3p0--0-3p0--0-0-|
|0--0-0--0--0-0-0--0-0-0--0-0-|-0--0-0--0--0-0-0--0-0-0--0-0-|
|2--2-2--2--2-2-2--2-2-2--2-2-|-2--2-2--2--2-2-2--2-2-2--2-2-|2.nd
|2--2-2-----------------------|-2--2-2-----------------------|
|0--0-0-----------------------|-0--0-0-----------------------|
 d  d u  d  d u u  d u u  d u   d  d u  d  d u u  d u u  d u

Chorus
|0--0-0--0--0-0-0--0-0-0--0-0-|-0--0-0--0--0-0-0--0-0-0--0-0-|1.Coz I can't Understa-
|1--1-1--1--1-1-1--1-1-1--1-1-|-1--1-1--1--1-1-1--1-1-1--1-1-|
|0--0-0--0--0-0-0--0-0-0--0-0-|-0--0-0--0--0-0-0--0-0-0--0-0-|
|2--2-2--2--2-2-2--2-2-2--2-2-|-2--2-2--2--2-2-2--2-2-2--2-2-|2.Coz I Can't Understa-
|3--3-3--3--3-3-3--3-3-3--3-3-|-3--3-3--3--3-3-3--3-3-3--3-3-|
|0--0-0--0--0-0-0--0-0-0--0-0-|-0--0-0--0--0-0-0--0-0-0--0-0-|
 d  d u  d  d u u  d u u  d u   d  d u  d  d u u  d u u  d u

|--------3--3-3-3--3-3-3--3-3-|---------3--3-3-3--3-3-3--3-3-|1.and
|--------3--3-3-3--3-3-3--3-3-|---------3--3-3-3--3-3-3--3-3-|  What You Meant To Me
|0--0-0--0--0-0-0--0-0-0--0-0-|-0--0-0--0--0-0-0--0-0-0--0-0-|
|2--2-2--2--2-2-2--2-2-2--2-2-|-2--2-2--2--2-2-2--2-2-2--2-2-|2.and
|2--2-2-----------------------|-2--2-2-----------------------|  What You Meant To Me
|0--0-0-----------------------|-0--0-0-----------------------|
 d  d u  d  d u u  d u u  d u   d  d u  d  d u u  d u u  d u

|0--0-0--0--0-0-0--0-0-0--0-0-|-0--0-0--0--0-0-0---------0-0-|1.You Made Me Wild
|1--1-1--1--1-1-1--1-1-1--1-1-|-1--1-1--1--1-1-1---------1-1-|  Then You Tied My Han-
|2--2-2--2--2-2-2--2-2-2--2-2-|-2--2-2--2--2-2-2---------2-2-|
|2--2-2--2--2-2-2--2-2-2--2-2-|-2--2-2--2--2-2-2---------2-2-|2.You Made Me WIld
|0--0-0--0--0-0-0--0-0-0--0-0-|-0--0-0--0--0-0-0---------0-0-|  Then You Tied My Han-
|0--0-0--0--0-0-0--0-0-0--0-0-|-0--0-0--0--0-0-0---------0-0-|
 d  d u  d  d u u  d u u  d u   d  d u  d  d u u         d u

|--------3--3-3-3--3-3p0--0-0-|---------3--3-3p0--0-0-0--0-0-|1.nds
|--------3--3-3-3--3-3p0--0-0-|---------3--3-3p0--0-0-0--0-0-|
|0--0-0--0--0-0-0--0-0-0--0-0-|-0--0-0--0--0-0-0--0-0-0--0-0-|
|2--2-2--2--2-2-2--2-2-2--2-2-|-2--2-2--2--2-2-2--2-2-2--2-2-|2.nds
|2--2-2-----------------------|-2--2-2-----------------------|
|0--0-0-----------------------|-0--0-0-----------------------|
 d  d u  d  d u u  d u u  d u   d  d u  d  d u u  d u u  d u

Volume Of Guitar is slightly lower here
|--------3--3-3-3--3-3-3--3-3-|---------3--3-3-3--3-3-3--3-3-|1.Since You Went Away
|--------3--3-3-3--3-3-3--3-3-|---------3--3-3-3--3-3-3--3-3-|  Made Me Fi-
|0--0-0--0--0-0-0--0-0-0--0-0-|-0--0-0--0--0-0-0--0-0-0--0-0-|
|2--2-2--2--2-2-2--2-2-2--2-2-|-2--2-2--2--2-2-2--2-2-2--2-2-|2.But Since You Went...
|2--2-2-----------------------|-2--2-2-----------------------|  Made Me Fi-
|0--0-0-----------------------|-0--0-0-----------------------|
 d  d u  d  d u u  d u u  d u   d  d u  d  d u u  d u u  d u

|0--0-0--0--0-0-0--0-0-0--0-0-|-0--0-0--0--0-0-0--0-0-0--0-0-|1.nd
|1--1-1--1--1-1-1--1-1-1--1-1-|-1--1-1--1--1-1-1--1-1-1--1-1-|  I Have Nothing To Sa-
|0--0-0--0--0-0-0--0-0-0--0-0-|-0--0-0--0--0-0-0--0-0-0--0-0-|
|2--2-2--2--2-2-2--2-2-2--2-2-|-2--2-2--2--2-2-2--2-2-2--2-2-|2.nd
|3--3-3--3--3-3-3--3-3-3--3-3-|-3--3-3--3--3-3-3--3-3-3--3-3-|  I Have Nothing To Sa-
|0--0-0--0--0-0-0--0-0-0--0-0-|-0--0-0--0--0-0-0--0-0-0--0-0-|
 d  d u  d  d u u  d u u  d u   d  d u  d  d u u  d u u  d u

|--------3--3-3-3--3-3p0--0-0-|---------3--3-3p0--0-0-0--0-0-|1.ay
|--------3--3-3-3--3-3p0--0-0-|---------3--3-3p0--0-0-0--0-0-|
|0--0-0--0--0-0-0--0-0-0--0-0-|-0--0-0--0--0-0-0--0-0-0--0-0-|2.ay
|2--2-2--2--2-2-2--2-2-2--2-2-|-2--2-2--2--2-2-2--2-2-2--2-2-|
|2--2-2-----------------------|-2--2-2-----------------------|
|0--0-0-----------------------|-0--0-0-----------------------|
 d  d u  d  d u u  d u u  d u   d  d u  d  d u u  d u u  d u

Chorus
|0--0-0--0--0-0-0--0-0-0--0-0-|-0--0-0--0--0-0-0--0-0-0--0-0-|1.Coz I can't Understa-
|1--1-1--1--1-1-1--1-1-1--1-1-|-1--1-1--1--1-1-1--1-1-1--1-1-|
|0--0-0--0--0-0-0--0-0-0--0-0-|-0--0-0--0--0-0-0--0-0-0--0-0-|
|2--2-2--2--2-2-2--2-2-2--2-2-|-2--2-2--2--2-2-2--2-2-2--2-2-|2.Coz I Can't Understa-
|3--3-3--3--3-3-3--3-3-3--3-3-|-3--3-3--3--3-3-3--3-3-3--3-3-|
|0--0-0--0--0-0-0--0-0-0--0-0-|-0--0-0--0--0-0-0--0-0-0--0-0-|
 d  d u  d  d u u  d u u  d u   d  d u  d  d u u  d u u  d u

|--------3--3-3-3--3-3-3--3-3-|---------3--3-3-3--3-3-3--3-3-|1.and
|--------3--3-3-3--3-3-3--3-3-|---------3--3-3-3--3-3-3--3-3-|  What You Meant To Me
|0--0-0--0--0-0-0--0-0-0--0-0-|-0--0-0--0--0-0-0--0-0-0--0-0-|
|2--2-2--2--2-2-2--2-2-2--2-2-|-2--2-2--2--2-2-2--2-2-2--2-2-|2.and
|2--2-2-----------------------|-2--2-2-----------------------|  What You Meant To Me
|0--0-0-----------------------|-0--0-0-----------------------|
 d  d u  d  d u u  d u u  d u   d  d u  d  d u u  d u u  d u

|0--0-0--0--0-0-0--0-0-0--0-0-|-0--0-0--0--0-0-0---------0-0-|1.You Made Me Wild
|1--1-1--1--1-1-1--1-1-1--1-1-|-1--1-1--1--1-1-1---------1-1-|  Then You Tied My Han-
|2--2-2--2--2-2-2--2-2-2--2-2-|-2--2-2--2--2-2-2---------2-2-|
|2--2-2--2--2-2-2--2-2-2--2-2-|-2--2-2--2--2-2-2---------2-2-|2.You Made Me Wild
|0--0-0--0--0-0-0--0-0-0--0-0-|-0--0-0--0--0-0-0---------0-0-|  Then You Tied My Han-
|0--0-0--0--0-0-0--0-0-0--0-0-|-0--0-0--0--0-0-0---------0-0-|
 d  d u  d  d u u  d u u  d u   d  d u  d  d u u         d u

|--------3--3-3-3--3-3p0--0-0-|---------3--3-3p0--0-0-0--0-0-|1.nds
|--------3--3-3-3--3-3p0--0-0-|---------3--3-3p0--0-0-0--0-0-|  YEAH!!!!!!
|0--0-0--0--0-0-0--0-0-0--0-0-|-0--0-0--0--0-0-0--0-0-0--0-0-|
|2--2-2--2--2-2-2--2-2-2--2-2-|-2--2-2--2--2-2-2--2-2-2--2-2-|2.nds
|2--2-2-----------------------|-2--2-2-----------------------|
|0--0-0-----------------------|-0--0-0-----------------------|
 d  d u  d  d u u  d u u  d u   d  d u  d  d u u  d u u  d u

Outro
|--------3--3-3-3--3-3p0--0-0-|---------3--3-3p0--0-0-0--0-0-|You Tied My Hands
|--------3--3-3-3--3-3p0--0-0-|---------3--3-3p0--0-0-0--0-0-|
|0--0-0--0--0-0-0--0-0-0--0-0-|-0--0-0--0--0-0-0--0-0-0--0-0-|You Tied My Hands
|2--2-2--2--2-2-2--2-2-2--2-2-|-2--2-2--2--2-2-2--2-2-2--2-2-|
|2--2-2-----------------------|-2--2-2-----------------------|You Tied My Hands
|0--0-0-----------------------|-0--0-0-----------------------|
 d  d u  d  d u u  d u u  d u   d  d u  d  d u u  d u u  d u

I reckon this is pretty correct, except i'm not sure about the strumming pattern, but hey i 
tried!!!! I think i am the 1st person to tab out this song, so please please if you
have any corrections, comments etc. Please send em all to



DISCLAIMER, it totally rocks!!!!!!!!!!!!!!!!

Brad
            
Submit corrections



        Tied My Hands lessons Hard to play? Try these video lessons and learn fast Tied My Hands lessons
        
↑ Back to top | Tablatures and chords for acoustic guitar and electric guitar, ukulele, drums are parodies/interpretations of the original songs. You may use it for private study, scholarship, research or language learning purposes only