Home » S » Sara Evans »

Sara Evans - I Keep Looking Tabs

Artists:  A B C D E F G H I J K L M N O P Q R S T U V W X Y Z # 

I Keep Looking Tabs

(ver. 1) Click to play this song!
Sara Evans
 Rating:
4/5 (4 votes)
                Key:

h: Hammer	p:  Pull Off	/:  Slide	b: Bend

br: Bend and release	~~~:  Vibrato	x: Muted string

bh: Bend and Hold	rb:  Release Bend
*******************************************************************

Intro:

E------------------------------------------------------------------
B-------------------4-4-66-4-6-6-----------------------------------
G--3-3--553-3-3-553-3-3-33-3-5-5-3-2-------------------------------
D--3-3--333-3-3-333--------------3----3----------------------------
A------------------------------------------------------------------
E------------------------------------------------------------------
Play that twice for the intro and through the chord progessions 
during the verses.

Solo:

E-----5------------------------------11------------------13--------
B--------------------------------(14)----------------(16)----------
G-5bh---5rb-3----------------13bh-------13rb-11--15bh-------15rb-11
D-------------5-3-5p3-3~~~-----------------------------------------
A--------------------5---------------------------------------------
E------------------------------------------------------------------

E-------13------13------13------13------13-------8-----8-----8-----
B--13h15---13h15---13h15---13h15---13h15-----8h10--8h10--8h10--8h10
G------------------------------------------------------------------
D------------------------------------------------------------------
A------------------------------------------------------------------
E------------------------------------------------------------------

E-8-----8------6----6----6----6----6-------------------------------
B---8h10----6h8--6h8--6h8--6h8--6h8--------------------------------
G------------------------------------5b-5pbr-3---------------------
D----------------------------------------------3-------------------
A------------------------------------------------------------------
E------------------------------------------------------------------

Outro:

Play intro till fade
            
Submit corrections

↑ Back to top | Tablatures and chords for acoustic guitar and electric guitar, ukulele, drums are parodies/interpretations of the original songs. You may use it for private study, scholarship, research or language learning purposes only