» » »

Sandwich - Sunburn Bass

Artists:  A B C D E F G H I J K L M N O P Q R S T U V W X Y Z # 

Sunburn Bass

(ver. 1) Click to play this song!
Sandwich
 Rating:
4/5 (4 votes)


 Sunburn lessons Tabs too difficult? Try these video lessons and learn fast
 
                                 SUNBURN-SANDWICH

HOMETOWN:LIGAO CITY(BICOL)GUILID DEL ROSARIO ST CORNER CONCEPCION.
TUNING:STANDARD
                 astig ang sandwich comment naman po
Intro

G|-------------------------------|
D|-------------------------------|
A|---------------77--------------|
E|-----5--9--7-9---9-7-9---------|
    ...........................

G|-------------------------------|
D|-------------------------------|
A|---------------77--------------|
E|-----5--9--7-9---9-7-9--5------|
    ...........................
repeat intro 2x

VERSE 1(repeat intro 2x)                   . 

PRECHORUS (REPEAT AS MANY TIMES)

G|-------------------------|
D|-------------------------|
A|-------------------------|
E|-10101010101010101010101-|

VERSE 2 SAME AS VERSE 1
THEN PRECHORUS
BRIDGE

 LETS ROLL...
G|--------------------|
D|--------------------|
A|--------------------|
E|--55555555555555555-|
    .................

SUNBURN!

G|--------------------|
D|--------------------|
A|--------------------|
E|--5-3---------------|

REPEAT VERSE THEN PRECHORUS

~END ~ pls RATE
            
Submit corrections



        Sunburn lessons Hard to play? Try these video lessons and learn fast Sunburn lessons
        
↑ Back to top | Tablatures and chords for acoustic guitar and electric guitar, ukulele, drums are parodies/interpretations of the original songs. You may use it for private study, scholarship, research or language learning purposes only