» » »

Sam Roberts - Canadian Dream Bass

Artists:  A B C D E F G H I J K L M N O P Q R S T U V W X Y Z # 

Canadian Dream Bass

(ver. 1) Click to play this song!
Sam Roberts
 Rating:
4/5 (4 votes)


 Canadian Dream lessons Tabs too difficult? Try these video lessons and learn fast
 
                This can be played on guitar or bass, I just found when played on bass it sounds closer 
to how it should be.

G-------------------------------------------------------|
D-------------------------7-(7)(7)(7)(7)-77/9h11p9h11p9-|
A-7-(7)(7)(7)(7)(7)(7)(7)-------------------------------|
E-------------------------------------------------------|

G--------------------------------------------------------| 3x
D--------------------------7-(7)(7)(7)(7)-77/9h11p9h11p9-|
A-7-(7)(7)(7)(7)(7)(7)-777-------------------------------|
E--------------------------------------------------------|

G----------------------------------------------------------------| 4x
D----------14p12h14-12p11h12-12p11\7-(7)(7)(7)(7)-77/9h11p9h11p9-|
A-7-(7)(7)-------------------------------------------------------|
E----------------------------------------------------------------|

G----------9h11p9-11h13p11-11h13h14\2----------------------------| 2x
D-------------------------------------------------77/9h11p9h11p9-|
A-7-(7)(7)-------------------------------------------------------|
E----------------------------------------------------------------|

G----------------------------------------------------------------| 8x
D----------14p12h14-12p11h12-12p11\7-(7)(7)(7)(7)-77/9h11p9h11p9-|
A-7-(7)(7)-------------------------------------------------------|
E----------------------------------------------------------------|

G----------------------------------------------------------------|
D----------14p12h14-12p11h12-12p11\------(something happens here-|
A-7-(7)(7)--------------------------------but I can't figure out-|
E----------------------------------------------------------what)-|

Another line passes, but I can't make it out, feel free to message me if you know what 
it is

Beyond this it begins to repeat the lines in different orders, but its pretty obvious if 
you listen to it
            
Submit corrections



        Canadian Dream lessons Hard to play? Try these video lessons and learn fast Canadian Dream lessons
        
↑ Back to top | Tablatures and chords for acoustic guitar and electric guitar, ukulele, drums are parodies/interpretations of the original songs. You may use it for private study, scholarship, research or language learning purposes only